  0
SECTION
  2
HEADER
  9
$ACADVER
  1
AC1015
  9
$ACADMAINTVER
 70
    20
  9
$DWGCODEPAGE
  3
ANSI_932
  9
$INSBASE
 10
0.0
 20
0.0
 30
0.0
  9
$EXTMIN
 10
-191.390489771955
 20
-32.90445059538626
 30
-0.0015258207003583
  9
$EXTMAX
 10
144.8392910751764
 20
158.8997334884896
 30
0.0000000349246037
  9
$LIMMIN
 10
0.0
 20
0.0
  9
$LIMMAX
 10
12.0
 20
9.0
  9
$ORTHOMODE
 70
     0
  9
$REGENMODE
 70
     1
  9
$FILLMODE
 70
     1
  9
$QTEXTMODE
 70
     0
  9
$MIRRTEXT
 70
     1
  9
$LTSCALE
 40
1.0
  9
$ATTMODE
 70
     1
  9
$TEXTSIZE
 40
0.2
  9
$TRACEWID
 40
0.05
  9
$TEXTSTYLE
  7
STANDARD
  9
$CLAYER
  8
0
  9
$CELTYPE
  6
CONTINUOUS
  9
$CECOLOR
 62
   256
  9
$CELTSCALE
 40
1.0
  9
$DISPSILH
 70
     0
  9
$DIMSCALE
 40
1.0
  9
$DIMASZ
 40
0.18
  9
$DIMEXO
 40
0.0625
  9
$DIMDLI
 40
0.38
  9
$DIMRND
 40
0.0
  9
$DIMDLE
 40
0.0
  9
$DIMEXE
 40
0.18
  9
$DIMTP
 40
0.0
  9
$DIMTM
 40
0.0
  9
$DIMTXT
 40
0.18
  9
$DIMCEN
 40
0.09
  9
$DIMTSZ
 40
0.0
  9
$DIMTOL
 70
     0
  9
$DIMLIM
 70
     0
  9
$DIMTIH
 70
     1
  9
$DIMTOH
 70
     1
  9
$DIMSE1
 70
     0
  9
$DIMSE2
 70
     0
  9
$DIMTAD
 70
     0
  9
$DIMZIN
 70
     0
  9
$DIMBLK
  1

  9
$DIMASO
 70
     1
  9
$DIMSHO
 70
     1
  9
$DIMPOST
  1

  9
$DIMAPOST
  1

  9
$DIMALT
 70
     0
  9
$DIMALTD
 70
     2
  9
$DIMALTF
 40
25.4
  9
$DIMLFAC
 40
1.0
  9
$DIMTOFL
 70
     0
  9
$DIMTVP
 40
0.0
  9
$DIMTIX
 70
     0
  9
$DIMSOXD
 70
     0
  9
$DIMSAH
 70
     0
  9
$DIMBLK1
  1

  9
$DIMBLK2
  1

  9
$DIMSTYLE
  2
STANDARD
  9
$DIMCLRD
 70
     0
  9
$DIMCLRE
 70
     0
  9
$DIMCLRT
 70
     0
  9
$DIMTFAC
 40
1.0
  9
$DIMGAP
 40
0.09
  9
$DIMJUST
 70
     0
  9
$DIMSD1
 70
     0
  9
$DIMSD2
 70
     0
  9
$DIMTOLJ
 70
     1
  9
$DIMTZIN
 70
     0
  9
$DIMALTZ
 70
     0
  9
$DIMALTTZ
 70
     0
  9
$DIMUPT
 70
     0
  9
$DIMDEC
 70
     4
  9
$DIMTDEC
 70
     4
  9
$DIMALTU
 70
     2
  9
$DIMALTTD
 70
     2
  9
$DIMTXSTY
  7
STANDARD
  9
$DIMAUNIT
 70
     0
  9
$DIMADEC
 70
     0
  9
$DIMALTRND
 40
0.0
  9
$DIMAZIN
 70
     0
  9
$DIMDSEP
 70
    46
  9
$DIMATFIT
 70
     3
  9
$DIMFRAC
 70
     0
  9
$DIMLDRBLK
  1

  9
$DIMLUNIT
 70
     2
  9
$DIMLWD
 70
    -2
  9
$DIMLWE
 70
    -2
  9
$DIMTMOVE
 70
     0
  9
$LUNITS
 70
     2
  9
$LUPREC
 70
     4
  9
$SKETCHINC
 40
0.1
  9
$FILLETRAD
 40
0.0
  9
$AUNITS
 70
     0
  9
$AUPREC
 70
     0
  9
$MENU
  1
.
  9
$ELEVATION
 40
0.0
  9
$PELEVATION
 40
0.0
  9
$THICKNESS
 40
0.0
  9
$LIMCHECK
 70
     0
  9
$CHAMFERA
 40
0.0
  9
$CHAMFERB
 40
0.0
  9
$CHAMFERC
 40
0.0
  9
$CHAMFERD
 40
0.0
  9
$SKPOLY
 70
     0
  9
$TDCREATE
 40
2452865.657906898
  9
$TDUCREATE
 40
2452865.282906898
  9
$TDUPDATE
 40
2456174.471569190
  9
$TDUUPDATE
 40
2456174.096569190
  9
$TDINDWG
 40
0.0016780556
  9
$TDUSRTIMER
 40
0.0016778704
  9
$USRTIMER
 70
     1
  9
$ANGBASE
 50
0.0
  9
$ANGDIR
 70
     0
  9
$PDMODE
 70
     0
  9
$PDSIZE
 40
0.0
  9
$PLINEWID
 40
0.0
  9
$SPLFRAME
 70
     0
  9
$SPLINETYPE
 70
     6
  9
$SPLINESEGS
 70
     8
  9
$HANDSEED
  5
4B7
  9
$SURFTAB1
 70
     6
  9
$SURFTAB2
 70
     6
  9
$SURFTYPE
 70
     6
  9
$SURFU
 70
     6
  9
$SURFV
 70
     6
  9
$UCSBASE
  2

  9
$UCSNAME
  2

  9
$UCSORG
 10
0.0
 20
0.0
 30
0.0
  9
$UCSXDIR
 10
1.0
 20
0.0
 30
0.0
  9
$UCSYDIR
 10
0.0
 20
1.0
 30
0.0
  9
$UCSORTHOREF
  2

  9
$UCSORTHOVIEW
 70
     0
  9
$UCSORGTOP
 10
0.0
 20
0.0
 30
0.0
  9
$UCSORGBOTTOM
 10
0.0
 20
0.0
 30
0.0
  9
$UCSORGLEFT
 10
0.0
 20
0.0
 30
0.0
  9
$UCSORGRIGHT
 10
0.0
 20
0.0
 30
0.0
  9
$UCSORGFRONT
 10
0.0
 20
0.0
 30
0.0
  9
$UCSORGBACK
 10
0.0
 20
0.0
 30
0.0
  9
$PUCSBASE
  2

  9
$PUCSNAME
  2

  9
$PUCSORG
 10
0.0
 20
0.0
 30
0.0
  9
$PUCSXDIR
 10
1.0
 20
0.0
 30
0.0
  9
$PUCSYDIR
 10
0.0
 20
1.0
 30
0.0
  9
$PUCSORTHOREF
  2

  9
$PUCSORTHOVIEW
 70
     0
  9
$PUCSORGTOP
 10
0.0
 20
0.0
 30
0.0
  9
$PUCSORGBOTTOM
 10
0.0
 20
0.0
 30
0.0
  9
$PUCSORGLEFT
 10
0.0
 20
0.0
 30
0.0
  9
$PUCSORGRIGHT
 10
0.0
 20
0.0
 30
0.0
  9
$PUCSORGFRONT
 10
0.0
 20
0.0
 30
0.0
  9
$PUCSORGBACK
 10
0.0
 20
0.0
 30
0.0
  9
$USERI1
 70
     0
  9
$USERI2
 70
     0
  9
$USERI3
 70
     0
  9
$USERI4
 70
     0
  9
$USERI5
 70
     0
  9
$USERR1
 40
0.0
  9
$USERR2
 40
0.0
  9
$USERR3
 40
0.0
  9
$USERR4
 40
0.0
  9
$USERR5
 40
0.0
  9
$WORLDVIEW
 70
     1
  9
$SHADEDGE
 70
     3
  9
$SHADEDIF
 70
    70
  9
$TILEMODE
 70
     1
  9
$MAXACTVP
 70
    64
  9
$PINSBASE
 10
0.0
 20
0.0
 30
0.0
  9
$PLIMCHECK
 70
     0
  9
$PEXTMIN
 10
1.000000000000000E+20
 20
1.000000000000000E+20
 30
1.000000000000000E+20
  9
$PEXTMAX
 10
-1.000000000000000E+20
 20
-1.000000000000000E+20
 30
-1.000000000000000E+20
  9
$PLIMMIN
 10
0.0
 20
0.0
  9
$PLIMMAX
 10
12.0
 20
9.0
  9
$UNITMODE
 70
     0
  9
$VISRETAIN
 70
     1
  9
$PLINEGEN
 70
     0
  9
$PSLTSCALE
 70
     1
  9
$TREEDEPTH
 70
  3020
  9
$CMLSTYLE
  2
Standard
  9
$CMLJUST
 70
     0
  9
$CMLSCALE
 40
1.0
  9
$PROXYGRAPHICS
 70
     1
  9
$MEASUREMENT
 70
     0
  9
$CELWEIGHT
370
    -1
  9
$ENDCAPS
280
     0
  9
$JOINSTYLE
280
     0
  9
$LWDISPLAY
290
     0
  9
$INSUNITS
 70
     0
  9
$HYPERLINKBASE
  1

  9
$STYLESHEET
  1

  9
$XEDIT
290
     1
  9
$CEPSNTYPE
380
     0
  9
$PSTYLEMODE
290
     1
  9
$FINGERPRINTGUID
  2
{8AFB5304-B3A9-41D9-988F-C3D24E608ABA}
  9
$VERSIONGUID
  2
{75D664CD-728A-49E5-ADDC-738495A51E77}
  9
$EXTNAMES
290
     1
  9
$PSVPSCALE
 40
0.0
  9
$OLESTARTUP
290
     0
  0
ENDSEC
  0
SECTION
  2
CLASSES
  0
CLASS
  1
ACDBDICTIONARYWDFLT
  2
AcDbDictionaryWithDefault
  3
ObjectDBX Classes
 90
        0
280
     0
281
     0
  0
CLASS
  1
MATERIAL
  2
AcDbMaterial
  3
ObjectDBX Classes
 90
     1024
280
     0
281
     0
  0
CLASS
  1
VISUALSTYLE
  2
AcDbVisualStyle
  3
ObjectDBX Classes
 90
     4095
280
     0
281
     0
  0
CLASS
  1
TABLESTYLE
  2
AcDbTableStyle
  3
ObjectDBX Classes
 90
     4095
280
     0
281
     0
  0
CLASS
  1
AMGSETTINGSOBJ
  2
AmgSettingsObj
  3
"AcadM|Product Description: AutoCAD Mechanical|Company: Autodesk"
 90
        0
280
     0
281
     0
  0
CLASS
  1
ACME_DOCUMENT
  2
AcMeDbDoc
  3
AcMeServices
 90
        0
280
     0
281
     0
  0
CLASS
  1
ACMESCOPE
  2
AcMeScope
  3
AcMeServices
 90
        0
280
     0
281
     0
  0
CLASS
  1
ACMECOMMANDHISTORY
  2
AcMeCommandHistory
  3
AcMeServices
 90
        0
280
     0
281
     0
  0
CLASS
  1
ACIMSYSVARMAN
  2
AcImSysVarManager
  3
AcMeServices
 90
        0
280
     0
281
     0
  0
CLASS
  1
ACIMINTSYSVAR
  2
AcImIntSysVar
  3
AcMeServices
 90
        0
280
     0
281
     0
  0
CLASS
  1
ACMEDRAWINGMAN
  2
AcMeDrawingMan
  3
AcMeServices
 90
        0
280
     0
281
     0
  0
CLASS
  1
ACMEVIEW
  2
AcMeView
  3
AcMeServices
 90
        0
280
     0
281
     0
  0
CLASS
  1
ACDBENTITYCACHE
  2
AcMeEntityCache
  3
AcMeServices
 90
        0
280
     0
281
     0
  0
CLASS
  1
GSMANAGER
  2
AcMeGSManager
  3
AcMeServices
 90
        0
280
     0
281
     0
  0
CLASS
  1
AMDTINTERNALREACTOR
  2
AmdtInternalReactor
  3
AcMeServices
 90
        0
280
     0
281
     0
  0
CLASS
  1
ACMESTATEMGR
  2
AcMeStateMgr
  3
AcMeServices
 90
        0
280
     0
281
     0
  0
CLASS
  1
ACGREFMASTER
  2
AcGrefMaster
  3
AcAttribServices
 90
        0
280
     0
281
     0
  0
CLASS
  1
AM_DRAWING_MGR
  2
AcDmDwgMgr
  3
AcMechDwgViewMgmt
 90
        0
280
     0
281
     0
  0
CLASS
  1
AM_DWG_DOCUMENT
  2
AcDmDwgDocument
  3
AcMechDwgViewMgmt
 90
        0
280
     0
281
     0
  0
CLASS
  1
AM_DWG_SHEET
  2
AcDmSheet
  3
AcMechDwgViewMgmt
 90
        0
280
     0
281
     0
  0
CLASS
  1
AM_VIEWDIMPARMAP
  2
AcDmViewDimParMap
  3
AcMechDwgViewMgmt
 90
        0
280
     0
281
     0
  0
CLASS
  1
ACIMREALSYSVAR
  2
AcImRealSysVar
  3
AcMeServices
 90
        0
280
     0
281
     0
  0
CLASS
  1
AM_DWGMGR_NAME
  2
AcDmDwgMgrName
  3
AcMechDwgViewMgmt
 90
        0
280
     0
281
     0
  0
CLASS
  1
ACME_DATABASE
  2
AcMeDbDatabase
  3
AcMeServices
 90
        0
280
     0
281
     0
  0
CLASS
  1
ACRFINSADJUSTERMGR
  2
AcRfInsAdjusterMgr
  3
AcMeServices
 90
        0
280
     0
281
     0
  0
CLASS
  1
ACGREFACADMASTER
  2
AcGrefacadMaster
  3
AcGrefServices
 90
        0
280
     0
281
     0
  0
CLASS
  1
AMDTMENUSTATEMGR
  2
AmdtMenuStateMgr
  3
McadcomServices
 90
        0
280
     0
281
     0
  0
CLASS
  1
AMDTMCOMMENUSTATE
  2
AmdtMcomMenuState
  3
McadcomServices
 90
        0
280
     0
281
     0
  0
CLASS
  1
AMIMASTER
  2
AmiMaster
  3
AmiServices
 90
        0
280
     0
281
     0
  0
CLASS
  1
MAPIAMMOUDLE
  2
MApiAmModule
  3
MApiAmServices
 90
        0
280
     0
281
     0
  0
CLASS
  1
ACIMSTRSYSVAR
  2
AcImStrSysVar
  3
AcMeServices
 90
        0
280
     0
281
     0
  0
CLASS
  1
AMDTADMENUSTATE
  2
AmdtAdMenuState
  3
DesignerServices
 90
        0
280
     0
281
     0
  0
CLASS
  1
ADAPPL
  2
AcAdAppl
  3
DesignerServices
 90
        0
280
     0
281
     0
  0
CLASS
  1
DEPMGR
  2
AcAdDepMgr
  3
DesignerServices
 90
        0
280
     0
281
     0
  0
CLASS
  1
PARAMMGR
  2
AcAdParamMgr
  3
DesignerServices
 90
        0
280
     0
281
     0
  0
CLASS
  1
PARAMSCOPE
  2
AcAdParamScope
  3
DesignerServices
 90
        0
280
     0
281
     0
  0
CLASS
  1
NAMEDAPPL
  2
AcAdNamedAppl
  3
DesignerServices
 90
        0
280
     0
281
     0
  0
CLASS
  1
AMDTDMMENUSTATE
  2
AmdtDmMenuState
  3
AcMechDwgViewMgmt
 90
        0
280
     0
281
     0
  0
CLASS
  1
AMDTAMMENUSTATE
  2
AmdtAmMenuState
  3
DesignerAssemblies
 90
        0
280
     0
281
     0
  0
CLASS
  1
ACAMPROJECT
  2
AcAmProject
  3
DesignerAssemblies
 90
        0
280
     0
281
     0
  0
CLASS
  1
ACAMGRCOMPDEF
  2
AcAmGrCompDef
  3
DesignerAssemblies
 90
        0
280
     0
281
     0
  0
CLASS
  1
ACCMCONTEXT
  2
AcCmContext
  3
DesignerAssemblies
 90
        0
280
     0
281
     0
  0
CLASS
  1
ACAMCOMPDEF
  2
AcAmCompDef
  3
DesignerAssemblies
 90
        0
280
     0
281
     0
  0
CLASS
  1
ACAMCOMPDEFMGR
  2
AcAmCompDefMgr
  3
DesignerAssemblies
 90
        0
280
     0
281
     0
  0
CLASS
  1
AMCONTEXTMGR
  2
AcAmContextMgr
  3
DesignerAssemblies
 90
        0
280
     0
281
     0
  0
CLASS
  1
ACAMCONTEXTMODELER
  2
AcAmContextModeler
  3
DesignerAssemblies
 90
        0
280
     0
281
     0
  0
CLASS
  1
ACMDATADICTIONARY
  2
AcmDataDictionary
  3
"AcmSymBB|Product Description: AutoCAD Mechanical|Company: Autodesk"
 90
        0
280
     0
281
     0
  0
CLASS
  1
CATALOGSTATE
  2
AcAmCatalogState
  3
DesignerAssemblies
 90
        0
280
     0
281
     0
  0
CLASS
  1
ACAMGRCOMPDEFSET
  2
AcAmGrCompDefSet
  3
DesignerAssemblies
 90
        0
280
     0
281
     0
  0
CLASS
  1
AMDTBROWSERDBTAB
  2
AmdtBrowserDbTab
  3
McadcomServices
 90
        0
280
     0
281
     0
  0
CLASS
  1
CBROWSERAPPOBJECT
  2
CBrowserAppObject
  3
McadcomServices
 90
        0
280
     0
281
     0
  0
CLASS
  1
DM_PLACEHOLDER
  2
AcDmSelsetPlaceholder
  3
AcMechDwgViewMgmt
 90
        0
280
     0
281
     0
  0
CLASS
  1
ACMSTANDARDANSI
  2
AcmStandardANSI
  3
"Amdt_StdImp|Product Description: AutoCAD Mechanical|Company: Autodesk"
 90
        0
280
     0
281
     0
  0
CLASS
  1
AMGOBJPROPCFG
  2
AmgObjPropCfg
  3
"AmgLay|Product Description: AutoCAD Mechanical|Company: Autodesk"
 90
        1
280
     0
281
     0
  0
CLASS
  1
ACMSURFSTANDARDANSI
  2
AcmSurfTextStdANSI
  3
"Amdt_StdImp|Product Description: AutoCAD Mechanical|Company: Autodesk"
 90
        0
280
     0
281
     0
  0
CLASS
  1
ACMFCFSTANDARDANSI
  2
AcmFCFStdANSI
  3
"Amdt_StdImp|Product Description: AutoCAD Mechanical|Company: Autodesk"
 90
        0
280
     0
281
     0
  0
CLASS
  1
ACMWELDSTANDARDANSI
  2
AcmWeldingStdANSI
  3
"Amdt_StdImp|Product Description: AutoCAD Mechanical|Company: Autodesk"
 90
        0
280
     0
281
     0
  0
CLASS
  1
ACMIDSTANDARDANSI
  2
AcmIdStdANSI
  3
"Amdt_StdImp|Product Description: AutoCAD Mechanical|Company: Autodesk"
 90
        0
280
     0
281
     0
  0
CLASS
  1
ACMDATUMSTANDARDANSI
  2
AcmDatumStdANSI
  3
"Amdt_StdImp|Product Description: AutoCAD Mechanical|Company: Autodesk"
 90
        0
280
     0
281
     0
  0
CLASS
  1
ACMBOMSTANDARDANSI
  2
AcmBOMStdANSI
  3
"Amdt_StdImp|Product Description: AutoCAD Mechanical|Company: Autodesk"
 90
        0
280
     0
281
     0
  0
CLASS
  1
ACMDETAILSTANDARDANSI
  2
AmdtDetailSymStdANSI
  3
"Amdt_StdImp|Product Description: AutoCAD Mechanical|Company: Autodesk"
 90
        0
280
     0
281
     0
  0
CLASS
  1
ACMSECTIONSTANDARDANSI
  2
AmdtSectionSymStdANSI
  3
"Amdt_StdImp|Product Description: AutoCAD Mechanical|Company: Autodesk"
 90
        0
280
     0
281
     0
  0
CLASS
  1
ACMCENTERLINESTANDARDANSI
  2
AmdtCenterLineStdANSI
  3
"Amdt_StdImp|Product Description: AutoCAD Mechanical|Company: Autodesk"
 90
        0
280
     0
281
     0
  0
CLASS
  1
ACMTHREADLINESTANDARDANSI
  2
AmdtThreadLineStdANSI
  3
"Amdt_StdImp|Product Description: AutoCAD Mechanical|Company: Autodesk"
 90
        0
280
     0
281
     0
  0
CLASS
  1
ACMNOTESTANDARDANSI
  2
AmdtNoteStdANSI
  3
"Amdt_StdImp|Product Description: AutoCAD Mechanical|Company: Autodesk"
 90
        0
280
     0
281
     0
  0
CLASS
  1
ACMTAPERSTANDARDANSI
  2
AcmTaperStdANSI
  3
"Amdt_StdImp|Product Description: AutoCAD Mechanical|Company: Autodesk"
 90
        0
280
     0
281
     0
  0
CLASS
  1
AMDTNOTETEMPLATEDB
  2
AmdtNoteTemplateDB
  3
AMDT_STDIMP_MODULE_NAME
 90
        0
280
     0
281
     0
  0
CLASS
  1
ACAMGLAYSTD
  2
AcAmgLayStd
  3
"AmgLay|Product Description: AutoCAD Mechanical|Company: Autodesk"
 90
        0
280
     0
281
     0
  0
CLASS
  1
ACAMGDIMSTD
  2
AcAmgDimStd
  3
"AmgDim|Product Description: AutoCAD Mechanical|Company: Autodesk"
 90
        0
280
     0
281
     0
  0
CLASS
  1
ACAMGHOLECHARTSTDANSI
  2
AcAmgHoleChartStdANSI
  3
ACMSYMBB_MODULE_NAME
 90
        0
280
     0
281
     0
  0
CLASS
  1
ACAMGTITLESTD
  2
AcAmgTitleStd
  3
"AmgTitle|Product Description: AutoCAD Mechanical|Company: Autodesk"
 90
        0
280
     0
281
     0
  0
CLASS
  1
CAMSSTRUCTBTNSTATE
  2
StructBtnState
  3
L"DesignerAssemblies"
 90
        0
280
     0
281
     0
  0
CLASS
  1
DICTIONARYVAR
  2
AcDbDictionaryVar
  3
ObjectDBX Classes
 90
        0
280
     0
281
     0
  0
CLASS
  1
ACAMGFILTERDAT
  2
AcAmgFilterDat
  3
"AcadM|Product Description: AutoCAD Mechanical|Company: Autodesk"
 90
        0
280
     0
281
     0
  0
CLASS
  1
ACDBPLACEHOLDER
  2
AcDbPlaceHolder
  3
ObjectDBX Classes
 90
        0
280
     0
281
     0
  0
CLASS
  1
LAYOUT
  2
AcDbLayout
  3
ObjectDBX Classes
 90
        0
280
     0
281
     0
  0
ENDSEC
  0
SECTION
  2
TABLES
  0
TABLE
  2
VPORT
  5
3A4
330
0
100
AcDbSymbolTable
 70
     1
  0
VPORT
  5
3D6
330
3A4
100
AcDbSymbolTableRecord
100
AcDbViewportTableRecord
  2
*ACTIVE
 70
     0
 10
0.0
 20
0.0
 11
1.0
 21
1.0
 12
-23.27559934838928
 22
62.99764144655168
 13
0.0
 23
0.0
 14
1.0
 24
1.0
 15
0.0
 25
0.0
 16
0.0
 26
0.0
 36
1.0
 17
0.0
 27
0.0
 37
0.0
 40
195.9006268034415
 41
1.723918575063613
 42
50.0
 43
0.0
 44
0.0
 50
0.0
 51
0.0
 71
     0
 72
   100
 73
     1
 74
     1
 75
     0
 76
     0
 77
     0
 78
     0
281
     0
 65
     0
110
0.0
120
0.0
130
0.0
111
1.0
121
0.0
131
0.0
112
0.0
122
1.0
132
0.0
 79
     0
146
0.0
  0
ENDTAB
  0
TABLE
  2
LTYPE
  5
3A1
330
0
100
AcDbSymbolTable
 70
    19
  0
LTYPE
  5
3C4
330
3A1
100
AcDbSymbolTableRecord
100
AcDbLinetypeTableRecord
  2
ByBlock
 70
     0
  3

 72
    65
 73
     0
 40
0.0
  0
LTYPE
  5
3C5
330
3A1
100
AcDbSymbolTableRecord
100
AcDbLinetypeTableRecord
  2
ByLayer
 70
     0
  3

 72
    65
 73
     0
 40
0.0
  0
LTYPE
  5
3C6
330
3A1
100
AcDbSymbolTableRecord
100
AcDbLinetypeTableRecord
  2
CONTINUOUS
 70
     0
  3
Solid line
 72
    65
 73
     0
 40
0.0
  0
LTYPE
  5
3D7
330
3A1
100
AcDbSymbolTableRecord
100
AcDbLinetypeTableRecord
  2
DASHED
 70
     0
  3
__ __ __ __ __ __ __ __ __ __ __ __ __ __ __
 72
    65
 73
     2
 40
3.5
 49
2.0
 74
     0
 49
-1.5
 74
     0
  0
LTYPE
  5
3D8
330
3A1
100
AcDbSymbolTableRecord
100
AcDbLinetypeTableRecord
  2
CENTER
 70
     0
  3
____ _ ____ _ ____ _ ____ _ ____ _ ____ _ ____
 72
    65
 73
     4
 40
17.5
 49
13.0
 74
     0
 49
-1.5
 74
     0
 49
1.5
 74
     0
 49
-1.5
 74
     0
  0
LTYPE
  5
3D9
330
3A1
100
AcDbSymbolTableRecord
100
AcDbLinetypeTableRecord
  2
PHANTOM
 70
     0
  3
_____ _ _ _____ _ _ _____ _ _ _____ _ _ ____  
 72
    65
 73
     6
 40
15.5
 49
8.0
 74
     0
 49
-1.5
 74
     0
 49
1.5
 74
     0
 49
-1.5
 74
     0
 49
1.5
 74
     0
 49
-1.5
 74
     0
  0
LTYPE
  5
3DA
330
3A1
100
AcDbSymbolTableRecord
100
AcDbLinetypeTableRecord
  2
DOT
 70
     0
  3
. . . . . . . . . . . . . . . . . . . . . . . .
 72
    65
 73
     2
 40
0.25
 49
0.0
 74
     0
 49
-0.25
 74
     0
  0
LTYPE
  5
3DB
330
3A1
100
AcDbSymbolTableRecord
100
AcDbLinetypeTableRecord
  2
AM_ISO02W050
 70
     0
  3
__ __ __ __ __ __ __ __ __ __ __ __ __ __ __
 72
    65
 73
     2
 40
7.5
 49
6.0
 74
     0
 49
-1.5
 74
     0
  0
LTYPE
  5
3DC
330
3A1
100
AcDbSymbolTableRecord
100
AcDbLinetypeTableRecord
  2
AM_ISO08W050
 70
     0
  3
____ . ____ . ____ . ____ . ____ . ____ . ____
 72
    65
 73
     4
 40
18.0
 49
12.0
 74
     0
 49
-1.5
 74
     0
 49
3.0
 74
     0
 49
-1.5
 74
     0
  0
LTYPE
  5
3DD
330
3A1
100
AcDbSymbolTableRecord
100
AcDbLinetypeTableRecord
  2
AM_ISO09W050
 70
     0
  3
_____ . . _____ . . _____ . . ____ .. ____
 72
    65
 73
     6
 40
22.5
 49
12.0
 74
     0
 49
-1.5
 74
     0
 49
3.0
 74
     0
 49
-1.5
 74
     0
 49
3.0
 74
     0
 49
-1.5
 74
     0
  0
LTYPE
  5
3DE
330
3A1
100
AcDbSymbolTableRecord
100
AcDbLinetypeTableRecord
  2
AMCONSTR
 70
     0
  3
_______________________
 72
    65
 73
     2
 40
9999.0
 49
9999.0
 74
     0
 49
0.0
 74
     0
  0
LTYPE
  5
3DF
330
3A1
100
AcDbSymbolTableRecord
100
AcDbLinetypeTableRecord
  2
AM_ISO08W050X2
 70
     0
  3
__ . __ . __ . __ . __ . __
 72
    65
 73
     4
 40
9.0
 49
6.0
 74
     0
 49
-0.75
 74
     0
 49
1.5
 74
     0
 49
-0.75
 74
     0
  0
LTYPE
  5
3E0
330
3A1
100
AcDbSymbolTableRecord
100
AcDbLinetypeTableRecord
  2
AM_ISO02W050X2
 70
     0
  3
 _ _ _ _ _ _ _ _ _ _ _ _
 72
    65
 73
     2
 40
3.75
 49
3.0
 74
     0
 49
-0.75
 74
     0
  0
LTYPE
  5
3E1
330
3A1
100
AcDbSymbolTableRecord
100
AcDbLinetypeTableRecord
  2
AMZIGZAG
 70
     0
  3
/\/-/\/-/\/-/\/-/\/-/\/
 72
    65
 73
     2
 40
11.00009999999999
 49
0.0001
 74
     0
 49
-11.0
 74
     0
  0
LTYPE
  5
3E2
330
3A1
100
AcDbSymbolTableRecord
100
AcDbLinetypeTableRecord
  2
HIDDEN
 70
     0
  3
Hidden __ __ __ __ __ __ __ __ __ __ __ __ __ _
 72
    65
 73
     2
 40
0.375
 49
0.25
 74
     0
 49
-0.125
 74
     0
  0
LTYPE
  5
3E3
330
3A1
100
AcDbSymbolTableRecord
100
AcDbLinetypeTableRecord
  2
PHANTOM2
 70
     0
  3
Phantom (.5x) ___ _ _ ___ _ _ ___ _ _ ___ _ _
 72
    65
 73
     6
 40
1.25
 49
0.625
 74
     0
 49
-0.125
 74
     0
 49
0.125
 74
     0
 49
-0.125
 74
     0
 49
0.125
 74
     0
 49
-0.125
 74
     0
  0
LTYPE
  5
3E4
330
3A1
100
AcDbSymbolTableRecord
100
AcDbLinetypeTableRecord
  2
CENTER2
 70
     0
  3
Center (.5x) ___ _ ___ _ ___ _ ___ _ ___ _ ___
 72
    65
 73
     4
 40
1.125
 49
0.75
 74
     0
 49
-0.125
 74
     0
 49
0.125
 74
     0
 49
-0.125
 74
     0
  0
LTYPE
  5
3E5
330
3A1
100
AcDbSymbolTableRecord
100
AcDbLinetypeTableRecord
  2
HIDDEN2
 70
     0
  3
Hidden (.5x) _ _ _ _ _ _ _ _ _ _ _ _ _ _ _ _ _
 72
    65
 73
     2
 40
0.1875
 49
0.125
 74
     0
 49
-0.0625
 74
     0
  0
LTYPE
  5
3E6
330
3A1
100
AcDbSymbolTableRecord
100
AcDbLinetypeTableRecord
  2
AMZIGZAG2
 70
     0
  3
/\/-/\/-/\/-/\/-/\/-/\/
 72
    65
 73
     2
 40
0.4401
 49
0.0001
 74
     0
 49
-0.4400000000000003
 74
     0
  0
LTYPE
  5
3E7
330
3A1
100
AcDbSymbolTableRecord
100
AcDbLinetypeTableRecord
  2
ACANSTGB
 70
     0
  3
__ . . __ . .
 72
    65
 73
     6
 40
0.35433070866
 49
0.15748031496
 74
     0
 49
-0.03937007874
 74
     0
 49
0.03937007874
 74
     0
 49
-0.03937007874
 74
     0
 49
0.03937007874
 74
     0
 49
-0.03937007874
 74
     0
  0
LTYPE
  5
3E8
330
3A1
100
AcDbSymbolTableRecord
100
AcDbLinetypeTableRecord
  2
ACANSTGL
 70
     0
  3
_ _ _ _ _
 72
    65
 73
     2
 40
0.11811023622
 49
0.07874015748
 74
     0
 49
-0.03937007874
 74
     0
  0
ENDTAB
  0
TABLE
  2
LAYER
  5
39E
330
0
100
AcDbSymbolTable
 70
     3
  0
LAYER
  5
3C1
330
39E
100
AcDbSymbolTableRecord
100
AcDbLayerTableRecord
  2
0
 70
     0
 62
     7
  6
CONTINUOUS
370
    -3
390
3AB
  0
LAYER
  5
3E9
330
39E
100
AcDbSymbolTableRecord
100
AcDbLayerTableRecord
  2
1
 70
     0
 62
     7
  6
CONTINUOUS
370
    -3
390
3AB
  0
LAYER
  5
3EA
330
39E
100
AcDbSymbolTableRecord
100
AcDbLayerTableRecord
  2
2
 70
     0
 62
     7
  6
CONTINUOUS
370
    -3
390
3AB
  0
ENDTAB
  0
TABLE
  2
STYLE
  5
39F
330
0
100
AcDbSymbolTable
 70
     4
  0
STYLE
  5
3C2
330
39F
100
AcDbSymbolTableRecord
100
AcDbTextStyleTableRecord
  2
STANDARD
 70
     0
 40
0.0
 41
1.0
 50
0.0
 71
     0
 42
0.2
  3
txt
  4
BIGFONT
  0
STYLE
  5
3EB
330
39F
100
AcDbSymbolTableRecord
100
AcDbTextStyleTableRecord
  2

 70
     1
 40
0.0
 41
1.0
 50
0.0
 71
     0
 42
0.2
  3
ltypeshp.shx
  4

  0
STYLE
  5
3EC
330
39F
100
AcDbSymbolTableRecord
100
AcDbTextStyleTableRecord
  2
ACANSTS
 70
     0
 40
1.0
 41
1.0
 50
0.0
 71
     0
 42
0.2
  3
romans.shx
  4
extfont.shx
  0
STYLE
  5
3ED
330
39F
100
AcDbSymbolTableRecord
100
AcDbTextStyleTableRecord
  2
ACANSGDT
 70
     0
 40
0.0
 41
1.0
 50
0.0
 71
     0
 42
0.2
  3
amgdt.shx
  4

  0
ENDTAB
  0
TABLE
  2
VIEW
  5
3A2
330
0
100
AcDbSymbolTable
 70
     0
  0
ENDTAB
  0
TABLE
  2
UCS
  5
3A3
330
0
100
AcDbSymbolTable
 70
     0
  0
ENDTAB
  0
TABLE
  2
APPID
  5
3A5
330
0
100
AcDbSymbolTable
 70
    10
  0
APPID
  5
3C3
330
3A5
100
AcDbSymbolTableRecord
100
AcDbRegAppTableRecord
  2
ACAD
 70
     0
  0
APPID
  5
3EE
330
3A5
100
AcDbSymbolTableRecord
100
AcDbRegAppTableRecord
  2
MCAD_NO_VIS
 70
     0
  0
APPID
  5
3EF
330
3A5
100
AcDbSymbolTableRecord
100
AcDbRegAppTableRecord
  2
ACAD_TEMP_GRAPHIC
 70
     0
  0
APPID
  5
3F0
330
3A5
100
AcDbSymbolTableRecord
100
AcDbRegAppTableRecord
  2
ACATTRIBSERVICES
 70
     0
  0
APPID
  5
3F1
330
3A5
100
AcDbSymbolTableRecord
100
AcDbRegAppTableRecord
  2
AD_DRAW
 70
     0
  0
APPID
  5
3F2
330
3A5
100
AcDbSymbolTableRecord
100
AcDbRegAppTableRecord
  2
DESIGNERASSEMBLIES
 70
     0
  0
APPID
  5
3F3
330
3A5
100
AcDbSymbolTableRecord
100
AcDbRegAppTableRecord
  2
ACADM_DIM_EDIT
 70
     0
  0
APPID
  5
3F4
330
3A5
100
AcDbSymbolTableRecord
100
AcDbRegAppTableRecord
  2
AMDT_DM_ADJ
 70
     0
  0
APPID
  5
3F5
330
3A5
100
AcDbSymbolTableRecord
100
AcDbRegAppTableRecord
  2
ACAD_DSTYLE_DIMARC_LENGTH_
 70
     0
  0
APPID
  5
3F6
330
3A5
100
AcDbSymbolTableRecord
100
AcDbRegAppTableRecord
  2
ACAD_DSTYLE_DIMJOGGED_JOGA
 70
     0
  0
ENDTAB
  0
TABLE
  2
DIMSTYLE
  5
3A6
330
0
100
AcDbSymbolTable
 70
     7
100
AcDbDimStyleTable
 71
     0
  0
DIMSTYLE
105
3F7
330
3A6
100
AcDbSymbolTableRecord
100
AcDbDimStyleTableRecord
  2
STANDARD
 70
     0
279
     2
340
3C2
  0
DIMSTYLE
105
3F8
330
3A6
100
AcDbSymbolTableRecord
100
AcDbDimStyleTableRecord
  2
AM_ANSI
 70
     0
  4
mm
 41
0.1
 42
0.05
 43
0.5
 44
0.1
 47
0.1
 48
0.1
 78
     7
140
0.12
141
0.0
146
0.71
147
0.06
176
   256
177
   256
178
     2
279
     2
340
3C2
  0
DIMSTYLE
105
3F9
330
3A6
100
AcDbSymbolTableRecord
100
AcDbDimStyleTableRecord
  2
AM_ANSI$3
 70
     0
  4
mm
 41
0.1
 42
0.05
 43
0.5
 44
0.1
 47
0.1
 48
0.1
 78
     7
140
0.12
141
0.0
146
0.71
147
0.06
176
   256
177
   256
178
     2
279
     2
340
3C2
  0
DIMSTYLE
105
3FA
330
3A6
100
AcDbSymbolTableRecord
100
AcDbDimStyleTableRecord
  2
AM_ANSI$4
 70
     0
  4
mm
 41
0.1
 42
0.05
 43
0.5
 44
0.1
 47
0.1
 48
0.1
 78
     7
140
0.12
141
0.0
146
0.71
147
0.06
176
   256
177
   256
178
     2
279
     2
340
3C2
  0
DIMSTYLE
105
3FB
330
3A6
100
AcDbSymbolTableRecord
100
AcDbDimStyleTableRecord
  2
AM_ANSI$7
 70
     0
  4
mm
 41
0.1
 42
0.05
 43
0.5
 44
0.1
 47
0.1
 48
0.1
 78
     7
140
0.24
141
0.0
146
0.71
147
0.06
176
   256
177
   256
178
     2
279
     2
340
3C2
  0
DIMSTYLE
105
3FC
330
3A6
100
AcDbSymbolTableRecord
100
AcDbDimStyleTableRecord
  2
AM_ANSI$SF
 70
     0
  4
mm
 41
0.1
 42
0.05
 43
0.5
 44
0.1
 47
0.1
 48
0.1
 75
     1
 76
     1
 78
     7
140
0.12
141
0.0
146
0.71
147
0.06
176
   256
177
   256
178
     2
279
     2
340
3C2
  0
DIMSTYLE
105
3FD
330
3A6
100
AcDbSymbolTableRecord
100
AcDbDimStyleTableRecord
  2
AM_ANSI$SH
 70
     0
  4
mm
 41
0.1
 42
0.05
 43
0.5
 44
0.1
 47
0.1
 48
0.1
 75
     1
 76
     1
 78
     7
140
0.12
141
0.0
146
0.71
147
0.06
173
     1
176
   256
177
   256
178
     2
279
     2
340
3C2
  0
ENDTAB
  0
TABLE
  2
BLOCK_RECORD
  5
39D
330
0
100
AcDbSymbolTable
 70
     4
  0
BLOCK_RECORD
  5
3D2
330
39D
100
AcDbSymbolTableRecord
100
AcDbBlockTableRecord
  2
*Model_Space
340
3D5
  0
BLOCK_RECORD
  5
3CE
330
39D
100
AcDbSymbolTableRecord
100
AcDbBlockTableRecord
  2
*Paper_Space
340
3D1
  0
BLOCK_RECORD
  5
404
330
39D
100
AcDbSymbolTableRecord
100
AcDbBlockTableRecord
  2
$MODEL_SPACE
340
0
  0
BLOCK_RECORD
  5
406
330
39D
100
AcDbSymbolTableRecord
100
AcDbBlockTableRecord
  2
$PAPER_SPACE
340
0
  0
BLOCK_RECORD
  5
408
330
39D
100
AcDbSymbolTableRecord
100
AcDbBlockTableRecord
  2
GENAXEH
340
0
  0
ENDTAB
  0
ENDSEC
  0
SECTION
  2
BLOCKS
  0
BLOCK
  5
3D3
330
3D2
100
AcDbEntity
  8
0
100
AcDbBlockBegin
  2
*Model_Space
 70
     0
 10
0.0
 20
0.0
 30
0.0
  3
*Model_Space
  1

  0
ENDBLK
  5
3D4
330
3D2
100
AcDbEntity
  8
0
100
AcDbBlockEnd
  0
BLOCK
  5
3CF
330
3CE
100
AcDbEntity
 67
     1
  8
0
100
AcDbBlockBegin
  2
*Paper_Space
 70
     0
 10
0.0
 20
0.0
 30
0.0
  3
*Paper_Space
  1

  0
ENDBLK
  5
3D0
330
3CE
100
AcDbEntity
 67
     1
  8
0
100
AcDbBlockEnd
  0
BLOCK
  5
405
330
404
100
AcDbEntity
  8
0
100
AcDbBlockBegin
  2
$MODEL_SPACE
 70
     0
 10
0.0
 20
0.0
 30
0.0
  3
$MODEL_SPACE
  1

  0
ENDBLK
  5
2D3
330
404
100
AcDbEntity
  8
0
100
AcDbBlockEnd
  0
BLOCK
  5
407
330
406
100
AcDbEntity
  8
0
100
AcDbBlockBegin
  2
$PAPER_SPACE
 70
     0
 10
0.0
 20
0.0
 30
0.0
  3
$PAPER_SPACE
  1

  0
ENDBLK
  5
2CF
330
406
100
AcDbEntity
  8
0
100
AcDbBlockEnd
  0
BLOCK
  5
409
330
408
100
AcDbEntity
  8
0
100
AcDbBlockBegin
  2
GENAXEH
 70
     0
 10
0.0
 20
0.0
 30
0.0
  3
GENAXEH
  1

  0
LINE
  5
295
330
408
100
AcDbEntity
  8
0
100
AcDbLine
 10
-1.0
 20
0.0
 30
0.0
 11
1.0
 21
0.0
 31
0.0
  0
ENDBLK
  5
297
330
408
100
AcDbEntity
  8
0
100
AcDbBlockEnd
  0
ENDSEC
  0
SECTION
  2
ENTITIES
  0
LINE
  5
2F
330
3D2
100
AcDbEntity
  8
0
  6
PHANTOM
 62
     7
100
AcDbLine
 10
-33.228767
 20
130.72981
 30
0.0
 11
-33.228767
 21
123.32668
 31
0.0
  0
LINE
  5
30
330
3D2
100
AcDbEntity
  8
0
  6
PHANTOM
 62
     7
100
AcDbLine
 10
-36.22876699999999
 20
130.72981
 30
0.0
 11
-36.22876699999999
 21
125.74153
 31
0.0
  0
LINE
  5
31
330
3D2
100
AcDbEntity
  8
0
  6
PHANTOM
 62
     7
100
AcDbLine
 10
-42.42878
 20
124.2874899999999
 30
0.0
 11
-42.42878
 21
123.1972199999999
 31
0.0
  0
LINE
  5
32
330
3D2
100
AcDbEntity
  8
0
  6
PHANTOM
 62
     7
100
AcDbLine
 10
-44.128731
 20
124.576
 30
0.0
 11
-44.128731
 21
123.00478
 31
0.0
  0
LINE
  5
33
330
3D2
100
AcDbEntity
  8
0
  6
PHANTOM
 62
     7
100
AcDbLine
 10
-44.12879199999999
 20
123.0047099999999
 30
0.0
 11
-44.728798
 21
123.0047099999999
 31
0.0
  0
LINE
  5
34
330
3D2
100
AcDbEntity
  8
0
  6
PHANTOM
 62
     7
100
AcDbLine
 10
-42.428745
 20
120.72971
 30
0.0
 11
-34.52002
 21
121.8412199999998
 31
0.0
  0
LINE
  5
35
330
3D2
100
AcDbEntity
  8
0
  6
PHANTOM
 62
     7
100
AcDbLine
 10
-41.79949599999999
 20
122.71452
 30
0.0
 11
-37.711258
 21
123.80995
 31
0.0
  0
LINE
  5
36
330
3D2
100
AcDbEntity
  8
0
  6
PHANTOM
 62
     7
100
AcDbLine
 10
-33.228767
 20
130.72981
 30
0.0
 11
-33.228767
 21
138.1328899999998
 31
0.0
  0
LINE
  5
37
330
3D2
100
AcDbEntity
  8
0
  6
Continuous
 62
     7
100
AcDbLine
 10
-45.92877999999998
 20
133.85481
 30
0.0
 11
-46.683601
 21
133.85481
 31
0.0
  0
LINE
  5
38
330
3D2
100
AcDbEntity
  8
0
  6
PHANTOM
 62
     7
100
AcDbLine
 10
-36.22876699999999
 20
130.72981
 30
0.0
 11
-36.22876699999999
 21
135.71803
 31
0.0
  0
LINE
  5
39
330
3D2
100
AcDbEntity
  8
0
  6
PHANTOM
 62
     7
100
AcDbLine
 10
-42.42878
 20
137.17207
 30
0.0
 11
-42.42878
 21
138.2623399999999
 31
0.0
  0
LINE
  5
3A
330
3D2
100
AcDbEntity
  8
0
  6
PHANTOM
 62
     7
100
AcDbLine
 10
-44.128731
 20
136.88356
 30
0.0
 11
-44.128731
 21
138.45479
 31
0.0
  0
LINE
  5
3B
330
3D2
100
AcDbEntity
  8
0
  6
PHANTOM
 62
     7
100
AcDbLine
 10
-44.12879199999999
 20
138.45473
 30
0.0
 11
-44.728798
 21
138.45473
 31
0.0
  0
LINE
  5
3C
330
3D2
100
AcDbEntity
  8
0
  6
PHANTOM
 62
     7
100
AcDbLine
 10
-42.42880999999999
 20
140.7295799999999
 30
0.0
 11
-34.52004999999999
 21
139.61809
 31
0.0
  0
LINE
  5
3D
330
3D2
100
AcDbEntity
  8
0
  6
PHANTOM
 62
     7
100
AcDbLine
 10
-41.799355
 20
138.7452899999999
 30
0.0
 11
-37.711117
 21
137.6498399999999
 31
0.0
  0
LINE
  5
3E
330
3D2
100
AcDbEntity
  8
0
  6
Continuous
 62
     7
100
AcDbLine
 10
-42.25772099999999
 20
137.20889
 30
0.0
 11
-41.74752
 21
138.30302
 31
0.0
  0
LINE
  5
3F
330
3D2
100
AcDbEntity
  8
0
  6
PHANTOM
 62
     7
100
AcDbLine
 10
-44.25428
 20
129.7297499999999
 30
0.0
 11
-89.22878299999998
 21
129.7297499999999
 31
0.0
  0
LINE
  5
40
330
3D2
100
AcDbEntity
  8
0
  6
Continuous
 62
     7
100
AcDbLine
 10
-45.349373
 20
131.72975
 30
0.0
 11
-89.22878299999998
 21
131.72975
 31
0.0
  0
LINE
  5
41
330
3D2
100
AcDbEntity
  8
0
  6
PHANTOM
 62
     7
100
AcDbLine
 10
-41.74152
 20
123.1441899999999
 30
0.0
 11
-39.415257
 21
123.7675
 31
0.0
  0
LINE
  5
42
330
3D2
100
AcDbEntity
  8
0
  6
PHANTOM
 62
     7
100
AcDbLine
 10
-42.257515
 20
124.2507299999999
 30
0.0
 11
-41.74139
 21
123.1438999999999
 31
0.0
  0
LINE
  5
43
330
3D2
100
AcDbEntity
  8
0
  6
Continuous
 62
     7
100
AcDbLine
 10
-41.74725
 20
138.3029
 30
0.0
 11
-37.566128
 21
137.18257
 31
0.0
  0
LINE
  5
44
330
3D2
100
AcDbEntity
  8
0
  6
PHANTOM
 62
     7
100
AcDbLine
 10
-90.228874
 20
127.22981
 30
0.0
 11
-90.228874
 21
128.72981
 31
0.0
  0
LINE
  5
45
330
3D2
100
AcDbEntity
  8
0
  6
Continuous
 62
     7
100
AcDbLine
 10
143.9397699999999
 20
-29.75519399999999
 30
0.0
 11
43.3494
 21
-29.75519399999999
 31
0.0
  0
LINE
  5
46
330
3D2
100
AcDbEntity
  8
0
  6
PHANTOM
 62
     7
100
AcDbLine
 10
-39.41523
 20
124.7294499999999
 30
0.0
 11
-39.41523
 21
123.76723
 31
0.0
  0
LINE
  5
47
330
3D2
100
AcDbEntity
  8
0
  6
Continuous
 62
     7
100
AcDbLine
 10
-48.228767
 20
136.22981
 30
0.0
 11
-48.228767
 21
133.85481
 31
0.0
  0
LINE
  5
48
330
3D2
100
AcDbEntity
  8
0
  6
PHANTOM
 62
     7
100
AcDbLine
 10
-49.228798
 20
124.22975
 30
0.0
 11
-49.92878000000001
 21
124.22975
 31
0.0
  0
LINE
  5
49
330
3D2
100
AcDbEntity
  8
0
  6
Continuous
 62
     7
100
AcDbLine
 10
-49.228798
 20
137.2297499999999
 30
0.0
 11
-49.92878000000001
 21
137.2297499999999
 31
0.0
  0
LINE
  5
4A
330
3D2
100
AcDbEntity
  8
0
  6
Continuous
 62
     7
100
AcDbLine
 10
-49.92878000000001
 20
137.22981
 30
0.0
 11
-49.92878000000001
 21
134.72981
 31
0.0
  0
LINE
  5
4B
330
3D2
100
AcDbEntity
  8
0
  6
PHANTOM
 62
     7
100
AcDbLine
 10
-49.92878000000001
 20
126.7297499999999
 30
0.0
 11
-89.72878299999996
 21
126.7297499999999
 31
0.0
  0
LINE
  5
4C
330
3D2
100
AcDbEntity
  8
0
  6
PHANTOM
 62
     7
100
AcDbLine
 10
-49.928902
 20
126.72981
 30
0.0
 11
-49.928902
 21
124.22981
 31
0.0
  0
LINE
  5
4D
330
3D2
100
AcDbEntity
  8
0
  6
PHANTOM
 62
     7
100
AcDbLine
 10
-48.228889
 20
127.60481
 30
0.0
 11
-48.228889
 21
125.22981
 31
0.0
  0
LINE
  5
4E
330
3D2
100
AcDbEntity
  8
0
  6
Continuous
 62
     7
100
AcDbLine
 10
-49.92878000000001
 20
134.72975
 30
0.0
 11
-89.72878299999996
 21
134.72975
 31
0.0
  0
LINE
  5
4F
330
3D2
100
AcDbEntity
  8
0
  6
PHANTOM
 62
     7
100
AcDbLine
 10
-44.403816
 20
127.1047499999999
 30
0.0
 11
-45.92877999999998
 21
127.1047499999999
 31
0.0
  0
LINE
  5
50
330
3D2
100
AcDbEntity
  8
0
  6
Continuous
 62
     7
100
AcDbLine
 10
-48.228767
 20
133.85481
 30
0.0
 11
-45.92877999999998
 21
133.85481
 31
0.0
  0
LINE
  5
51
330
3D2
100
AcDbEntity
  8
0
  6
Continuous
 62
     7
100
AcDbLine
 10
-44.403816
 20
134.35481
 30
0.0
 11
-45.82874299999999
 21
134.35481
 31
0.0
  0
LINE
  5
52
330
3D2
100
AcDbEntity
  8
0
  6
PHANTOM
 62
     7
100
AcDbLine
 10
-44.72876699999999
 20
139.20955
 30
0.0
 11
-44.72876699999999
 21
138.45479
 31
0.0
  0
LINE
  5
53
330
3D2
100
AcDbEntity
  8
0
  6
Continuous
 62
     7
100
AcDbLine
 10
-30.47883
 20
133.85481
 30
0.0
 11
-29.724009
 21
133.85481
 31
0.0
  0
LINE
  5
54
330
3D2
100
AcDbEntity
  8
0
  6
Continuous
 62
     7
100
AcDbLine
 10
-32.05005599999999
 20
134.4548499999999
 30
0.0
 11
-30.47883
 21
134.4548499999999
 31
0.0
  0
LINE
  5
55
330
3D2
100
AcDbEntity
  8
0
  6
Continuous
 62
     7
100
AcDbLine
 10
-30.478769
 20
134.45479
 30
0.0
 11
-30.478769
 21
133.85481
 31
0.0
  0
LINE
  5
56
330
3D2
100
AcDbEntity
  8
0
  6
Continuous
 62
     7
100
AcDbLine
 10
-32.153328
 20
131.72981
 30
0.0
 11
12.821188
 21
131.72981
 31
0.0
  0
LINE
  5
57
330
3D2
100
AcDbEntity
  8
0
  6
Continuous
 62
     7
100
AcDbLine
 10
-34.666195
 20
138.31563
 30
0.0
 11
-36.99245799999999
 21
137.69231
 31
0.0
  0
LINE
  5
58
330
3D2
100
AcDbEntity
  8
0
  6
Continuous
 62
     7
100
AcDbLine
 10
-34.15008499999999
 20
137.2087999999999
 30
0.0
 11
-34.666237
 21
138.3156899999999
 31
0.0
  0
LINE
  5
59
330
3D2
100
AcDbEntity
  8
0
  6
Continuous
 62
     7
100
AcDbLine
 10
-28.203743
 20
136.15482
 30
0.0
 11
-29.31524099999999
 21
144.0635499999999
 31
0.0
  0
LINE
  5
5A
330
3D2
100
AcDbEntity
  8
0
  6
Continuous
 62
     7
100
AcDbLine
 10
13.82127999999999
 20
134.22981
 30
0.0
 11
13.82127999999999
 21
132.72981
 31
0.0
  0
LINE
  5
5B
330
3D2
100
AcDbEntity
  8
0
  6
Continuous
 62
     7
100
AcDbLine
 10
-36.99237800000001
 20
136.7301199999999
 30
0.0
 11
-36.99237800000001
 21
137.69234
 31
0.0
  0
LINE
  5
5C
330
3D2
100
AcDbEntity
  8
0
  6
Continuous
 62
     7
100
AcDbLine
 10
-27.178812
 20
137.22981
 30
0.0
 11
-26.47883
 21
137.22981
 31
0.0
  0
LINE
  5
5D
330
3D2
100
AcDbEntity
  8
0
  6
Continuous
 62
     7
100
AcDbLine
 10
-26.47883
 20
134.72981
 30
0.0
 11
13.321188
 21
134.72981
 31
0.0
  0
LINE
  5
5E
330
3D2
100
AcDbEntity
  8
0
  6
Continuous
 62
     7
100
AcDbLine
 10
-26.478708
 20
134.72981
 30
0.0
 11
-26.478708
 21
137.22981
 31
0.0
  0
LINE
  5
5F
330
3D2
100
AcDbEntity
  8
0
  6
Continuous
 62
     7
100
AcDbLine
 10
-28.17872
 20
133.85481
 30
0.0
 11
-28.17872
 21
136.22981
 31
0.0
  0
LINE
  5
60
330
3D2
100
AcDbEntity
  8
0
  6
Continuous
 62
     7
100
AcDbLine
 10
-30.47883
 20
133.85481
 30
0.0
 11
-28.178782
 21
133.85481
 31
0.0
  0
LINE
  5
61
330
3D2
100
AcDbEntity
  8
0
  6
Continuous
 62
     7
100
AcDbLine
 10
-32.00379199999999
 20
134.35481
 30
0.0
 11
-30.47883
 21
134.35481
 31
0.0
  0
LINE
  5
62
330
3D2
100
AcDbEntity
  8
0
  6
Continuous
 62
     7
100
AcDbLine
 10
-31.761545
 20
136.1547999999999
 30
0.0
 11
-30.671274
 21
136.1547999999999
 31
0.0
  0
LINE
  5
63
330
3D2
100
AcDbEntity
  8
0
  6
Continuous
 62
     7
100
AcDbLine
 10
-30.188288
 20
136.78416
 30
0.0
 11
-31.28373499999999
 21
140.8724199999998
 31
0.0
  0
LINE
  5
64
330
3D2
100
AcDbEntity
  8
0
  6
Continuous
 62
     7
100
AcDbLine
 10
-38.20380399999999
 20
142.35481
 30
0.0
 11
-33.215584
 21
142.35481
 31
0.0
  0
LINE
  5
65
330
3D2
100
AcDbEntity
  8
0
  6
Continuous
 62
     7
100
AcDbLine
 10
-38.20380399999999
 20
142.35481
 30
0.0
 11
-43.19202399999999
 21
142.35481
 31
0.0
  0
LINE
  5
66
330
3D2
100
AcDbEntity
  8
0
  6
Continuous
 62
     7
100
AcDbLine
 10
-46.21937899999998
 20
136.78426
 30
0.0
 11
-45.12394699999997
 21
140.8724499999999
 31
0.0
  0
LINE
  5
67
330
3D2
100
AcDbEntity
  8
0
  6
Continuous
 62
     7
100
AcDbLine
 10
-44.646065
 20
136.1547999999999
 30
0.0
 11
-45.73633599999999
 21
136.1547999999999
 31
0.0
  0
LINE
  5
68
330
3D2
100
AcDbEntity
  8
0
  6
Continuous
 62
     7
100
AcDbLine
 10
-44.357552
 20
134.4548499999999
 30
0.0
 11
-45.92877999999998
 21
134.4548499999999
 31
0.0
  0
LINE
  5
69
330
3D2
100
AcDbEntity
  8
0
  6
Continuous
 62
     7
100
AcDbLine
 10
-45.92877999999998
 20
134.45479
 30
0.0
 11
-45.92877999999998
 21
133.85481
 31
0.0
  0
LINE
  5
6A
330
3D2
100
AcDbEntity
  8
0
  6
Continuous
 62
     7
100
AcDbLine
 10
-46.683601
 20
133.85481
 30
0.0
 11
-45.82874299999999
 21
133.85481
 31
0.0
  0
LINE
  5
6B
330
3D2
100
AcDbEntity
  8
0
  6
Continuous
 62
     7
100
AcDbLine
 10
-48.20369
 20
136.15474
 30
0.0
 11
-47.092182
 21
144.0635199999999
 31
0.0
  0
LINE
  5
6C
330
3D2
100
AcDbEntity
  8
0
  6
Continuous
 62
     7
100
AcDbLine
 10
-38.20380399999999
 20
145.35481
 30
0.0
 11
-45.60687999999998
 21
145.35481
 31
0.0
  0
LINE
  5
6D
330
3D2
100
AcDbEntity
  8
0
  6
Continuous
 62
     7
100
AcDbLine
 10
-38.20380399999999
 20
145.35481
 30
0.0
 11
-30.80073
 21
145.35481
 31
0.0
  0
LINE
  5
6E
330
3D2
100
AcDbEntity
  8
0
  6
PHANTOM
 62
     7
100
AcDbLine
 10
-44.728798
 20
123.0047099999999
 30
0.0
 11
-44.728798
 21
122.25002
 31
0.0
  0
LINE
  5
6F
330
3D2
100
AcDbEntity
  8
0
  6
PHANTOM
 62
     7
100
AcDbLine
 10
-45.92877999999998
 20
127.60475
 30
0.0
 11
-45.92877999999998
 21
127.1047499999999
 31
0.0
  0
LINE
  5
70
330
3D2
100
AcDbEntity
  8
0
  6
PHANTOM
 62
     7
100
AcDbLine
 10
-48.228863
 20
127.60472
 30
0.0
 11
-45.928814
 21
127.60477
 31
0.0
  0
LINE
  5
71
330
3D2
100
AcDbEntity
  8
0
  6
Continuous
 62
     7
100
AcDbLine
 10
-45.82874299999999
 20
134.35481
 30
0.0
 11
-45.82874299999999
 21
133.85481
 31
0.0
  0
LINE
  5
72
330
3D2
100
AcDbEntity
  8
0
  6
Continuous
 62
     7
100
AcDbLine
 10
-90.228783
 20
132.72981
 30
0.0
 11
-90.228783
 21
134.22981
 31
0.0
  0
LINE
  5
73
330
3D2
100
AcDbEntity
  8
0
  6
Continuous
 62
     7
100
AcDbLine
 10
-175.33025
 20
22.26984799999999
 30
0.0
 11
43.3494
 21
22.26984799999999
 31
0.0
  0
LINE
  5
74
330
3D2
100
AcDbEntity
  8
0
  6
Continuous
 62
     7
100
AcDbLine
 10
-175.33025
 20
-29.75519399999999
 30
0.0
 11
-175.33025
 21
22.26984799999999
 31
0.0
  0
LINE
  5
75
330
3D2
100
AcDbEntity
  8
0
  6
Continuous
 62
     7
100
AcDbLine
 10
-175.33025
 20
-1.246038399999999
 30
0.0
 11
-157.08025
 21
-1.246038399999999
 31
0.0
  0
LINE
  5
76
330
3D2
100
AcDbEntity
  8
0
  6
Continuous
 62
     7
100
AcDbLine
 10
-175.33025
 20
-2.681692099999998
 30
0.0
 11
-157.08025
 21
-2.681692099999998
 31
0.0
  0
LINE
  5
77
330
3D2
100
AcDbEntity
  8
0
  6
Continuous
 62
     7
100
AcDbLine
 10
-175.33025
 20
-4.2003231
 30
0.0
 11
-157.08025
 21
-4.2003231
 31
0.0
  0
LINE
  5
78
330
3D2
100
AcDbEntity
  8
0
  6
Continuous
 62
     7
100
AcDbLine
 10
-175.33025
 20
-5.4991665
 30
0.0
 11
-157.08025
 21
-5.4991665
 31
0.0
  0
LINE
  5
79
330
3D2
100
AcDbEntity
  8
0
  6
Continuous
 62
     7
100
AcDbLine
 10
-175.33025
 20
-6.808980899999999
 30
0.0
 11
-157.08025
 21
-6.808980899999999
 31
0.0
  0
LINE
  5
7A
330
3D2
100
AcDbEntity
  8
0
  6
CENTER
 62
     7
100
AcDbLine
 10
120.93977
 20
-10.63638899999999
 30
0.0
 11
120.93977
 21
2.477899599999997
 31
0.0
  0
LINE
  5
7B
330
3D2
100
AcDbEntity
  8
0
  6
CENTER
 62
     7
100
AcDbLine
 10
-152.3302499999998
 20
-9.7996578
 30
0.0
 11
-152.3302499999998
 21
2.528970699999999
 31
0.0
  0
LINE
  5
7C
330
3D2
100
AcDbEntity
  8
0
  6
CENTER
 62
     7
100
AcDbLine
 10
86.93978099999998
 20
-9.649282499999998
 30
0.0
 11
86.93978099999998
 21
2.618905999999999
 31
0.0
  0
LINE
  5
7D
330
3D2
100
AcDbEntity
  8
0
  6
CENTER
 62
     7
100
AcDbLine
 10
52.939781
 20
-9.790304199999996
 30
0.0
 11
52.939781
 21
2.618905999999999
 31
0.0
  0
LINE
  5
7E
330
3D2
100
AcDbEntity
  8
0
  6
CENTER
 62
     7
100
AcDbLine
 10
-83.13260699999998
 20
-10.38674
 30
0.0
 11
-83.13260699999998
 21
2.3822117
 31
0.0
  0
LINE
  5
7F
330
3D2
100
AcDbEntity
  8
0
  6
CENTER
 62
     7
100
AcDbLine
 10
-118.3302399999999
 20
-10.23996499999999
 30
0.0
 11
-118.3302399999999
 21
2.528970699999999
 31
0.0
  0
LINE
  5
80
330
3D2
100
AcDbEntity
  8
0
  6
Continuous
 62
     7
100
AcDbLine
 10
116.1897699999999
 20
-7.492696799999998
 30
0.0
 11
116.1897699999999
 21
0.0073032379
 31
0.0
  0
LINE
  5
81
330
3D2
100
AcDbEntity
  8
0
  6
Continuous
 62
     7
100
AcDbLine
 10
125.6897699999999
 20
-7.492696799999998
 30
0.0
 11
125.6897699999999
 21
0.0073032379
 31
0.0
  0
LINE
  5
82
330
3D2
100
AcDbEntity
  8
0
  6
Continuous
 62
     7
100
AcDbLine
 10
-157.08025
 20
-7.492696799999998
 30
0.0
 11
-147.58025
 21
-7.492696799999998
 31
0.0
  0
LINE
  5
83
330
3D2
100
AcDbEntity
  8
0
  6
Continuous
 62
     7
100
AcDbLine
 10
-157.08025
 20
0.0073032379
 30
0.0
 11
-147.58025
 21
0.0073032379
 31
0.0
  0
LINE
  5
84
330
3D2
100
AcDbEntity
  8
0
  6
Continuous
 62
     7
100
AcDbLine
 10
82.18978100000002
 20
-7.492696799999998
 30
0.0
 11
82.18978100000002
 21
0.0073032379
 31
0.0
  0
LINE
  5
85
330
3D2
100
AcDbEntity
  8
0
  6
Continuous
 62
     7
100
AcDbLine
 10
91.68978100000002
 20
-7.492696799999998
 30
0.0
 11
91.68978100000002
 21
0.0073032379
 31
0.0
  0
LINE
  5
86
330
3D2
100
AcDbEntity
  8
0
  6
Continuous
 62
     7
100
AcDbLine
 10
116.1897699999999
 20
-7.492696799999998
 30
0.0
 11
125.6897699999999
 21
-7.492696799999998
 31
0.0
  0
LINE
  5
87
330
3D2
100
AcDbEntity
  8
0
  6
Continuous
 62
     7
100
AcDbLine
 10
116.1897699999999
 20
0.0073032379
 30
0.0
 11
125.6897699999999
 21
0.0073032379
 31
0.0
  0
LINE
  5
88
330
3D2
100
AcDbEntity
  8
0
  6
Continuous
 62
     7
100
AcDbLine
 10
57.689781
 20
-7.492696799999998
 30
0.0
 11
57.689781
 21
0.0073032379
 31
0.0
  0
LINE
  5
89
330
3D2
100
AcDbEntity
  8
0
  6
Continuous
 62
     7
100
AcDbLine
 10
48.18978099999998
 20
-7.492696799999998
 30
0.0
 11
48.18978099999998
 21
0.0073032379
 31
0.0
  0
LINE
  5
8A
330
3D2
100
AcDbEntity
  8
0
  6
Continuous
 62
     7
100
AcDbLine
 10
82.18978100000002
 20
0.0073032379
 30
0.0
 11
91.68978100000002
 21
0.0073032379
 31
0.0
  0
LINE
  5
8B
330
3D2
100
AcDbEntity
  8
0
  6
Continuous
 62
     7
100
AcDbLine
 10
82.18978100000002
 20
-7.492696799999998
 30
0.0
 11
91.68978100000002
 21
-7.492696799999998
 31
0.0
  0
LINE
  5
8C
330
3D2
100
AcDbEntity
  8
0
  6
Continuous
 62
     7
100
AcDbLine
 10
125.6897699999999
 20
-6.808980899999999
 30
0.0
 11
143.9397699999999
 21
-6.808980899999999
 31
0.0
  0
LINE
  5
8D
330
3D2
100
AcDbEntity
  8
0
  6
Continuous
 62
     7
100
AcDbLine
 10
125.6897699999999
 20
-5.4991665
 30
0.0
 11
143.9397699999999
 21
-5.4991665
 31
0.0
  0
LINE
  5
8E
330
3D2
100
AcDbEntity
  8
0
  6
Continuous
 62
     7
100
AcDbLine
 10
125.6897699999999
 20
-4.2003231
 30
0.0
 11
143.9397699999999
 21
-4.2003231
 31
0.0
  0
LINE
  5
8F
330
3D2
100
AcDbEntity
  8
0
  6
Continuous
 62
     7
100
AcDbLine
 10
125.6897699999999
 20
-2.681692099999998
 30
0.0
 11
143.9397699999999
 21
-2.681692099999998
 31
0.0
  0
LINE
  5
90
330
3D2
100
AcDbEntity
  8
0
  6
Continuous
 62
     7
100
AcDbLine
 10
125.6897699999999
 20
-1.246038399999999
 30
0.0
 11
143.9397699999999
 21
-1.246038399999999
 31
0.0
  0
LINE
  5
91
330
3D2
100
AcDbEntity
  8
0
  6
Continuous
 62
     7
100
AcDbLine
 10
91.68978100000002
 20
-6.808980899999999
 30
0.0
 11
116.1897699999999
 21
-6.808980899999999
 31
0.0
  0
LINE
  5
92
330
3D2
100
AcDbEntity
  8
0
  6
Continuous
 62
     7
100
AcDbLine
 10
91.68978100000002
 20
-5.4991665
 30
0.0
 11
116.1897699999999
 21
-5.4991665
 31
0.0
  0
LINE
  5
93
330
3D2
100
AcDbEntity
  8
0
  6
Continuous
 62
     7
100
AcDbLine
 10
91.68978100000002
 20
-4.2003231
 30
0.0
 11
116.1897699999999
 21
-4.2003231
 31
0.0
  0
LINE
  5
94
330
3D2
100
AcDbEntity
  8
0
  6
Continuous
 62
     7
100
AcDbLine
 10
91.68978100000002
 20
-2.681692099999998
 30
0.0
 11
116.1897699999999
 21
-2.681692099999998
 31
0.0
  0
LINE
  5
95
330
3D2
100
AcDbEntity
  8
0
  6
Continuous
 62
     7
100
AcDbLine
 10
91.68978100000002
 20
-1.246038399999999
 30
0.0
 11
116.1897699999999
 21
-1.246038399999999
 31
0.0
  0
LINE
  5
96
330
3D2
100
AcDbEntity
  8
0
  6
Continuous
 62
     7
100
AcDbLine
 10
57.689781
 20
-6.808980899999999
 30
0.0
 11
82.18978100000002
 21
-6.808980899999999
 31
0.0
  0
LINE
  5
97
330
3D2
100
AcDbEntity
  8
0
  6
Continuous
 62
     7
100
AcDbLine
 10
57.689781
 20
-5.4991665
 30
0.0
 11
82.18978100000002
 21
-5.4991665
 31
0.0
  0
LINE
  5
98
330
3D2
100
AcDbEntity
  8
0
  6
Continuous
 62
     7
100
AcDbLine
 10
57.689781
 20
-4.2003231
 30
0.0
 11
82.18978100000002
 21
-4.2003231
 31
0.0
  0
LINE
  5
99
330
3D2
100
AcDbEntity
  8
0
  6
Continuous
 62
     7
100
AcDbLine
 10
57.689781
 20
-2.681692099999998
 30
0.0
 11
82.18978100000002
 21
-2.681692099999998
 31
0.0
  0
LINE
  5
9A
330
3D2
100
AcDbEntity
  8
0
  6
Continuous
 62
     7
100
AcDbLine
 10
57.689781
 20
-1.246038399999999
 30
0.0
 11
82.18978100000002
 21
-1.246038399999999
 31
0.0
  0
LINE
  5
9B
330
3D2
100
AcDbEntity
  8
0
  6
Continuous
 62
     7
100
AcDbLine
 10
48.18978099999998
 20
-7.492696799999998
 30
0.0
 11
57.689781
 21
-7.492696799999998
 31
0.0
  0
LINE
  5
9C
330
3D2
100
AcDbEntity
  8
0
  6
Continuous
 62
     7
100
AcDbLine
 10
48.18978099999998
 20
0.0073032379
 30
0.0
 11
57.689781
 21
0.0073032379
 31
0.0
  0
LINE
  5
9D
330
3D2
100
AcDbEntity
  8
0
  6
Continuous
 62
     7
100
AcDbLine
 10
-157.08025
 20
-7.492696799999998
 30
0.0
 11
-157.08025
 21
0.0073032379
 31
0.0
  0
LINE
  5
9E
330
3D2
100
AcDbEntity
  8
0
  6
Continuous
 62
     7
100
AcDbLine
 10
-147.58025
 20
-7.492696799999998
 30
0.0
 11
-147.58025
 21
0.0073032379
 31
0.0
  0
LINE
  5
9F
330
3D2
100
AcDbEntity
  8
0
  6
Continuous
 62
     7
100
AcDbLine
 10
-147.58025
 20
-6.808980899999999
 30
0.0
 11
-123.0802399999999
 21
-6.808980899999999
 31
0.0
  0
LINE
  5
A0
330
3D2
100
AcDbEntity
  8
0
  6
Continuous
 62
     7
100
AcDbLine
 10
-147.58025
 20
-5.4991665
 30
0.0
 11
-123.0802399999999
 21
-5.4991665
 31
0.0
  0
LINE
  5
A1
330
3D2
100
AcDbEntity
  8
0
  6
Continuous
 62
     7
100
AcDbLine
 10
-147.58025
 20
-4.2003231
 30
0.0
 11
-123.0802399999999
 21
-4.2003231
 31
0.0
  0
LINE
  5
A2
330
3D2
100
AcDbEntity
  8
0
  6
Continuous
 62
     7
100
AcDbLine
 10
-147.58025
 20
-2.681692099999998
 30
0.0
 11
-123.0802399999999
 21
-2.681692099999998
 31
0.0
  0
LINE
  5
A3
330
3D2
100
AcDbEntity
  8
0
  6
Continuous
 62
     7
100
AcDbLine
 10
-147.58025
 20
-1.246038399999999
 30
0.0
 11
-123.0802399999999
 21
-1.246038399999999
 31
0.0
  0
LINE
  5
A4
330
3D2
100
AcDbEntity
  8
0
  6
Continuous
 62
     7
100
AcDbLine
 10
-113.5802399999999
 20
-7.492696799999998
 30
0.0
 11
-113.5802399999999
 21
0.0073032379
 31
0.0
  0
LINE
  5
A5
330
3D2
100
AcDbEntity
  8
0
  6
Continuous
 62
     7
100
AcDbLine
 10
-123.0802399999999
 20
-7.492696799999998
 30
0.0
 11
-123.0802399999999
 21
0.0073032379
 31
0.0
  0
LINE
  5
A6
330
3D2
100
AcDbEntity
  8
0
  6
Continuous
 62
     7
100
AcDbLine
 10
-123.0802399999999
 20
-7.492696799999998
 30
0.0
 11
-113.5802399999999
 21
-7.492696799999998
 31
0.0
  0
LINE
  5
A7
330
3D2
100
AcDbEntity
  8
0
  6
Continuous
 62
     7
100
AcDbLine
 10
-123.0802399999999
 20
0.0073032379
 30
0.0
 11
-113.5802399999999
 21
0.0073032379
 31
0.0
  0
LINE
  5
A8
330
3D2
100
AcDbEntity
  8
0
  6
Continuous
 62
     7
100
AcDbLine
 10
-113.5802399999999
 20
-6.808980899999999
 30
0.0
 11
-87.88260699999998
 21
-6.808980899999999
 31
0.0
  0
LINE
  5
A9
330
3D2
100
AcDbEntity
  8
0
  6
Continuous
 62
     7
100
AcDbLine
 10
-113.5802399999999
 20
-5.4991665
 30
0.0
 11
-87.88260699999998
 21
-5.4991665
 31
0.0
  0
LINE
  5
AA
330
3D2
100
AcDbEntity
  8
0
  6
Continuous
 62
     7
100
AcDbLine
 10
-113.5802399999999
 20
-4.2003231
 30
0.0
 11
-87.88260699999998
 21
-4.2003231
 31
0.0
  0
LINE
  5
AB
330
3D2
100
AcDbEntity
  8
0
  6
Continuous
 62
     7
100
AcDbLine
 10
-113.5802399999999
 20
-2.681692099999998
 30
0.0
 11
-87.88260699999998
 21
-2.681692099999998
 31
0.0
  0
LINE
  5
AC
330
3D2
100
AcDbEntity
  8
0
  6
Continuous
 62
     7
100
AcDbLine
 10
-113.5802399999999
 20
-1.246038399999999
 30
0.0
 11
-87.88260699999998
 21
-1.246038399999999
 31
0.0
  0
LINE
  5
AD
330
3D2
100
AcDbEntity
  8
0
  6
Continuous
 62
     7
100
AcDbLine
 10
-10.382607
 20
-7.492696799999998
 30
0.0
 11
-10.382607
 21
0.0073032379
 31
0.0
  0
LINE
  5
AE
330
3D2
100
AcDbEntity
  8
0
  6
Continuous
 62
     7
100
AcDbLine
 10
-19.882607
 20
-7.492696799999998
 30
0.0
 11
-19.882607
 21
0.0073032379
 31
0.0
  0
LINE
  5
AF
330
3D2
100
AcDbEntity
  8
0
  6
Continuous
 62
     7
100
AcDbLine
 10
-19.882607
 20
-7.492696799999998
 30
0.0
 11
-10.382607
 21
-7.492696799999998
 31
0.0
  0
LINE
  5
B0
330
3D2
100
AcDbEntity
  8
0
  6
Continuous
 62
     7
100
AcDbLine
 10
-19.882607
 20
0.0073032379
 30
0.0
 11
-10.382607
 21
0.0073032379
 31
0.0
  0
LINE
  5
B1
330
3D2
100
AcDbEntity
  8
0
  6
Continuous
 62
     7
100
AcDbLine
 10
-78.38260699999998
 20
-6.808980899999999
 30
0.0
 11
-53.882607
 21
-6.808980899999999
 31
0.0
  0
LINE
  5
B2
330
3D2
100
AcDbEntity
  8
0
  6
Continuous
 62
     7
100
AcDbLine
 10
-78.38260699999998
 20
-5.4991665
 30
0.0
 11
-53.882607
 21
-5.4991665
 31
0.0
  0
LINE
  5
B3
330
3D2
100
AcDbEntity
  8
0
  6
Continuous
 62
     7
100
AcDbLine
 10
-78.38260699999998
 20
-4.2003231
 30
0.0
 11
-53.882607
 21
-4.2003231
 31
0.0
  0
LINE
  5
B4
330
3D2
100
AcDbEntity
  8
0
  6
Continuous
 62
     7
100
AcDbLine
 10
-78.38260699999998
 20
-2.681692099999998
 30
0.0
 11
-53.882607
 21
-2.681692099999998
 31
0.0
  0
LINE
  5
B5
330
3D2
100
AcDbEntity
  8
0
  6
Continuous
 62
     7
100
AcDbLine
 10
-78.38260699999998
 20
-1.246038399999999
 30
0.0
 11
-53.882607
 21
-1.246038399999999
 31
0.0
  0
LINE
  5
B6
330
3D2
100
AcDbEntity
  8
0
  6
CENTER
 62
     7
100
AcDbLine
 10
-135.33025
 20
-30.527609
 30
0.0
 11
-135.33025
 21
21.635998
 31
0.0
  0
LINE
  5
B7
330
3D2
100
AcDbEntity
  8
0
  6
CENTER
 62
     7
100
AcDbLine
 10
-169.33025
 20
-30.527609
 30
0.0
 11
-169.33025
 21
21.635998
 31
0.0
  0
LINE
  5
B8
330
3D2
100
AcDbEntity
  8
0
  6
CENTER
 62
     7
100
AcDbLine
 10
-101.33024
 20
-30.527609
 30
0.0
 11
-101.33024
 21
21.635998
 31
0.0
  0
LINE
  5
B9
330
3D2
100
AcDbEntity
  8
0
  6
CENTER
 62
     7
100
AcDbLine
 10
137.9397699999999
 20
-32.898598
 30
0.0
 11
137.9397699999999
 21
31.12746
 31
0.0
  0
LINE
  5
BA
330
3D2
100
AcDbEntity
  8
0
  6
CENTER
 62
     7
100
AcDbLine
 10
103.9397799999999
 20
-32.009346
 30
0.0
 11
103.9397799999999
 21
31.12746
 31
0.0
  0
LINE
  5
BB
330
3D2
100
AcDbEntity
  8
0
  6
CENTER
 62
     7
100
AcDbLine
 10
69.93978100000001
 20
-32.453972
 30
0.0
 11
69.93978100000001
 21
31.12746
 31
0.0
  0
LINE
  5
BD
330
3D2
100
AcDbEntity
  8
0
  6
CENTER
 62
     7
100
AcDbLine
 10
-179.20354
 20
14.269848
 30
0.0
 11
43.3494
 21
14.269848
 31
0.0
  0
LINE
  5
BE
330
3D2
100
AcDbEntity
  8
0
  6
CENTER
 62
     7
100
AcDbLine
 10
-178.97331
 20
6.269800199999997
 30
0.0
 11
43.3494
 21
6.269800199999997
 31
0.0
  0
LINE
  5
BF
330
3D2
100
AcDbEntity
  8
0
  6
CENTER
 62
     7
100
AcDbLine
 10
-178.8582
 20
-13.75520899999999
 30
0.0
 11
43.3494
 21
-13.75520899999999
 31
0.0
  0
LINE
  5
C0
330
3D2
100
AcDbEntity
  8
0
  6
CENTER
 62
     7
100
AcDbLine
 10
-178.51286
 20
-21.755194
 30
0.0
 11
43.3494
 21
-21.755194
 31
0.0
  0
LINE
  5
C1
330
3D2
100
AcDbEntity
  8
0
  6
CENTER
 62
     7
100
AcDbLine
 10
-179.12511
 20
-3.7426968
 30
0.0
 11
-49.77715299999999
 21
-3.7426968
 31
0.0
  0
LINE
  5
C2
330
3D2
100
AcDbEntity
  8
0
  6
CENTER
 62
     7
100
AcDbLine
 10
-74.228798
 20
128.2853499999999
 30
0.0
 11
-74.228798
 21
137.85414
 31
0.0
  0
LINE
  5
C3
330
3D2
100
AcDbEntity
  8
0
  6
CENTER
 62
     7
100
AcDbLine
 10
-58.22879799999999
 20
128.2853499999999
 30
0.0
 11
-58.22879799999999
 21
137.75343
 31
0.0
  0
LINE
  5
C4
330
3D2
100
AcDbEntity
  8
0
  6
CENTER
 62
     7
100
AcDbLine
 10
-2.178720199999998
 20
138.44118
 30
0.0
 11
-2.178720199999998
 21
128.42635
 31
0.0
  0
LINE
  5
C5
330
3D2
100
AcDbEntity
  8
0
  6
CENTER
 62
     7
100
AcDbLine
 10
-18.17872
 20
137.9577199999999
 30
0.0
 11
-18.17872
 21
128.08101
 31
0.0
  0
LINE
  5
C6
330
3D2
100
AcDbEntity
  8
0
  6
Continuous
 62
     7
100
AcDbLine
 10
143.9397699999999
 20
-29.75519399999999
 30
0.0
 11
143.9397699999999
 21
22.26984799999999
 31
0.0
  0
LINE
  5
C7
330
3D2
100
AcDbEntity
  8
0
  6
Continuous
 62
     7
100
AcDbLine
 10
43.3494
 20
22.26984799999999
 30
0.0
 11
143.9397699999999
 21
22.26984799999999
 31
0.0
  0
LINE
  5
C8
330
3D2
100
AcDbEntity
  8
0
  6
Continuous
 62
     7
100
AcDbLine
 10
43.3494
 20
-29.75519399999999
 30
0.0
 11
-175.33025
 21
-29.75519399999999
 31
0.0
  0
LINE
  5
C9
330
3D2
100
AcDbEntity
  8
0
  6
CENTER
 62
     7
100
AcDbLine
 10
43.3494
 20
-21.755194
 30
0.0
 11
144.82903
 21
-21.755194
 31
0.0
  0
LINE
  5
CA
330
3D2
100
AcDbEntity
  8
0
  6
CENTER
 62
     7
100
AcDbLine
 10
43.3494
 20
-13.75520899999999
 30
0.0
 11
144.82903
 21
-13.75520899999999
 31
0.0
  0
LINE
  5
CB
330
3D2
100
AcDbEntity
  8
0
  6
CENTER
 62
     7
100
AcDbLine
 10
43.3494
 20
6.269800199999997
 30
0.0
 11
144.82903
 21
6.269800199999997
 31
0.0
  0
LINE
  5
CC
330
3D2
100
AcDbEntity
  8
0
  6
CENTER
 62
     7
100
AcDbLine
 10
43.3494
 20
14.269848
 30
0.0
 11
144.82903
 21
14.269848
 31
0.0
  0
LINE
  5
CD
330
3D2
100
AcDbEntity
  8
0
  6
Continuous
 62
     7
100
AcDbLine
 10
43.3494
 20
-6.808980899999999
 30
0.0
 11
48.18978099999998
 21
-6.808980899999999
 31
0.0
  0
LINE
  5
CE
330
3D2
100
AcDbEntity
  8
0
  6
Continuous
 62
     7
100
AcDbLine
 10
43.3494
 20
-5.4991665
 30
0.0
 11
48.18978099999998
 21
-5.4991665
 31
0.0
  0
LINE
  5
CF
330
3D2
100
AcDbEntity
  8
0
  6
Continuous
 62
     7
100
AcDbLine
 10
43.3494
 20
-4.2003231
 30
0.0
 11
48.18978099999998
 21
-4.2003231
 31
0.0
  0
LINE
  5
D0
330
3D2
100
AcDbEntity
  8
0
  6
CENTER
 62
     7
100
AcDbLine
 10
43.3494
 20
-3.7426968
 30
0.0
 11
144.82903
 21
-3.7426968
 31
0.0
  0
LINE
  5
D1
330
3D2
100
AcDbEntity
  8
0
  6
Continuous
 62
     7
100
AcDbLine
 10
43.3494
 20
-2.681692099999998
 30
0.0
 11
48.18978099999998
 21
-2.681692099999998
 31
0.0
  0
LINE
  5
D2
330
3D2
100
AcDbEntity
  8
0
  6
Continuous
 62
     7
100
AcDbLine
 10
43.3494
 20
-1.246038399999999
 30
0.0
 11
48.18978099999998
 21
-1.246038399999999
 31
0.0
  0
LINE
  5
D3
330
3D2
100
AcDbEntity
  8
0
  6
CENTER
 62
     7
100
AcDbLine
 10
-33.330238
 20
-30.527609
 30
0.0
 11
-33.330238
 21
21.635998
 31
0.0
  0
LINE
  5
D4
330
3D2
100
AcDbEntity
  8
0
  6
Continuous
 62
     7
100
AcDbLine
 10
-87.88260699999998
 20
0.0073032379
 30
0.0
 11
-78.38260699999998
 21
0.0073032379
 31
0.0
  0
LINE
  5
D5
330
3D2
100
AcDbEntity
  8
0
  6
Continuous
 62
     7
100
AcDbLine
 10
-87.88260699999998
 20
-7.492696799999998
 30
0.0
 11
-78.38260699999998
 21
-7.492696799999998
 31
0.0
  0
LINE
  5
D6
330
3D2
100
AcDbEntity
  8
0
  6
Continuous
 62
     7
100
AcDbLine
 10
-87.88260699999998
 20
-7.492696799999998
 30
0.0
 11
-87.88260699999998
 21
0.0073032379
 31
0.0
  0
LINE
  5
D7
330
3D2
100
AcDbEntity
  8
0
  6
Continuous
 62
     7
100
AcDbLine
 10
-78.38260699999998
 20
-7.492696799999998
 30
0.0
 11
-78.38260699999998
 21
0.0073032379
 31
0.0
  0
LINE
  5
D8
330
3D2
100
AcDbEntity
  8
0
  6
Continuous
 62
     7
100
AcDbLine
 10
-44.38260699999999
 20
-6.808980899999999
 30
0.0
 11
-19.882607
 21
-6.808980899999999
 31
0.0
  0
LINE
  5
D9
330
3D2
100
AcDbEntity
  8
0
  6
Continuous
 62
     7
100
AcDbLine
 10
-44.38260699999999
 20
-5.4991665
 30
0.0
 11
-19.882607
 21
-5.4991665
 31
0.0
  0
LINE
  5
DA
330
3D2
100
AcDbEntity
  8
0
  6
Continuous
 62
     7
100
AcDbLine
 10
-44.38260699999999
 20
-4.2003231
 30
0.0
 11
-19.882607
 21
-4.2003231
 31
0.0
  0
LINE
  5
DB
330
3D2
100
AcDbEntity
  8
0
  6
CENTER
 62
     7
100
AcDbLine
 10
-48.650047
 20
-3.7426968
 30
0.0
 11
43.3494
 21
-3.7426968
 31
0.0
  0
LINE
  5
DC
330
3D2
100
AcDbEntity
  8
0
  6
Continuous
 62
     7
100
AcDbLine
 10
-44.38260699999999
 20
-2.681692099999998
 30
0.0
 11
-19.882607
 21
-2.681692099999998
 31
0.0
  0
LINE
  5
DD
330
3D2
100
AcDbEntity
  8
0
  6
Continuous
 62
     7
100
AcDbLine
 10
-44.38260699999999
 20
-1.246038399999999
 30
0.0
 11
-19.882607
 21
-1.246038399999999
 31
0.0
  0
LINE
  5
DE
330
3D2
100
AcDbEntity
  8
0
  6
CENTER
 62
     7
100
AcDbLine
 10
34.66976199999999
 20
-30.527609
 30
0.0
 11
34.66976199999999
 21
21.635998
 31
0.0
  0
LINE
  5
DF
330
3D2
100
AcDbEntity
  8
0
  6
Continuous
 62
     7
100
AcDbLine
 10
14.11739299999999
 20
-7.492696799999998
 30
0.0
 11
23.61739299999999
 21
-7.492696799999998
 31
0.0
  0
LINE
  5
E0
330
3D2
100
AcDbEntity
  8
0
  6
Continuous
 62
     7
100
AcDbLine
 10
14.11739299999999
 20
0.0073032379
 30
0.0
 11
23.61739299999999
 21
0.0073032379
 31
0.0
  0
LINE
  5
E1
330
3D2
100
AcDbEntity
  8
0
  6
Continuous
 62
     7
100
AcDbLine
 10
14.11739299999999
 20
-7.492696799999998
 30
0.0
 11
14.11739299999999
 21
0.0073032379
 31
0.0
  0
LINE
  5
E2
330
3D2
100
AcDbEntity
  8
0
  6
Continuous
 62
     7
100
AcDbLine
 10
23.61739299999999
 20
-7.492696799999998
 30
0.0
 11
23.61739299999999
 21
0.0073032379
 31
0.0
  0
LINE
  5
E3
330
3D2
100
AcDbEntity
  8
0
  6
Continuous
 62
     7
100
AcDbLine
 10
-53.882607
 20
0.0073032379
 30
0.0
 11
-44.38260699999999
 21
0.0073032379
 31
0.0
  0
LINE
  5
E4
330
3D2
100
AcDbEntity
  8
0
  6
Continuous
 62
     7
100
AcDbLine
 10
-53.882607
 20
-7.492696799999998
 30
0.0
 11
-44.38260699999999
 21
-7.492696799999998
 31
0.0
  0
LINE
  5
E5
330
3D2
100
AcDbEntity
  8
0
  6
Continuous
 62
     7
100
AcDbLine
 10
-53.882607
 20
-7.492696799999998
 30
0.0
 11
-53.882607
 21
0.0073032379
 31
0.0
  0
LINE
  5
E6
330
3D2
100
AcDbEntity
  8
0
  6
Continuous
 62
     7
100
AcDbLine
 10
-44.38260699999999
 20
-7.492696799999998
 30
0.0
 11
-44.38260699999999
 21
0.0073032379
 31
0.0
  0
LINE
  5
E7
330
3D2
100
AcDbEntity
  8
0
  6
Continuous
 62
     7
100
AcDbLine
 10
23.61739299999999
 20
-6.808980899999999
 30
0.0
 11
43.3494
 21
-6.808980899999999
 31
0.0
  0
LINE
  5
E8
330
3D2
100
AcDbEntity
  8
0
  6
Continuous
 62
     7
100
AcDbLine
 10
23.61739299999999
 20
-5.4991665
 30
0.0
 11
43.3494
 21
-5.4991665
 31
0.0
  0
LINE
  5
E9
330
3D2
100
AcDbEntity
  8
0
  6
Continuous
 62
     7
100
AcDbLine
 10
23.61739299999999
 20
-4.2003231
 30
0.0
 11
43.3494
 21
-4.2003231
 31
0.0
  0
LINE
  5
EA
330
3D2
100
AcDbEntity
  8
0
  6
Continuous
 62
     7
100
AcDbLine
 10
23.61739299999999
 20
-2.681692099999998
 30
0.0
 11
43.3494
 21
-2.681692099999998
 31
0.0
  0
LINE
  5
EB
330
3D2
100
AcDbEntity
  8
0
  6
Continuous
 62
     7
100
AcDbLine
 10
23.61739299999999
 20
-1.246038399999999
 30
0.0
 11
43.3494
 21
-1.246038399999999
 31
0.0
  0
LINE
  5
EC
330
3D2
100
AcDbEntity
  8
0
  6
Continuous
 62
     7
100
AcDbLine
 10
-10.382607
 20
-6.808980899999999
 30
0.0
 11
14.11739299999999
 21
-6.808980899999999
 31
0.0
  0
LINE
  5
ED
330
3D2
100
AcDbEntity
  8
0
  6
Continuous
 62
     7
100
AcDbLine
 10
-10.382607
 20
-5.4991665
 30
0.0
 11
14.11739299999999
 21
-5.4991665
 31
0.0
  0
LINE
  5
EE
330
3D2
100
AcDbEntity
  8
0
  6
Continuous
 62
     7
100
AcDbLine
 10
-10.382607
 20
-4.2003231
 30
0.0
 11
14.11739299999999
 21
-4.2003231
 31
0.0
  0
LINE
  5
EF
330
3D2
100
AcDbEntity
  8
0
  6
Continuous
 62
     7
100
AcDbLine
 10
-10.382607
 20
-2.681692099999998
 30
0.0
 11
14.11739299999999
 21
-2.681692099999998
 31
0.0
  0
LINE
  5
F0
330
3D2
100
AcDbEntity
  8
0
  6
Continuous
 62
     7
100
AcDbLine
 10
-10.382607
 20
-1.246038399999999
 30
0.0
 11
14.11739299999999
 21
-1.246038399999999
 31
0.0
  0
LINE
  5
F1
330
3D2
100
AcDbEntity
  8
0
  6
CENTER
 62
     7
100
AcDbLine
 10
-49.132607
 20
-10.38674
 30
0.0
 11
-49.132607
 21
2.3822117
 31
0.0
  0
LINE
  5
F2
330
3D2
100
AcDbEntity
  8
0
  6
CENTER
 62
     7
100
AcDbLine
 10
-15.132607
 20
-10.38674
 30
0.0
 11
-15.132607
 21
2.3822117
 31
0.0
  0
LINE
  5
F3
330
3D2
100
AcDbEntity
  8
0
  6
CENTER
 62
     7
100
AcDbLine
 10
18.867393
 20
-10.38674
 30
0.0
 11
18.867393
 21
2.3822117
 31
0.0
  0
LINE
  5
F4
330
3D2
100
AcDbEntity
  8
0
  6
DASHED
 62
     7
100
AcDbLine
 10
-71.128754
 20
133.7298
 30
0.0
 11
-69.12874599999999
 21
131.7298
 31
0.0
  0
LINE
  5
F5
330
3D2
100
AcDbEntity
  8
0
  6
DASHED
 62
     7
100
AcDbLine
 10
-77.32875099999998
 20
133.72971
 30
0.0
 11
-79.32875099999998
 21
131.72971
 31
0.0
  0
LINE
  5
F6
330
3D2
100
AcDbEntity
  8
0
  6
DASHED
 62
     7
100
AcDbLine
 10
-77.328804
 20
133.72975
 30
0.0
 11
-77.328804
 21
134.72975
 31
0.0
  0
LINE
  5
F7
330
3D2
100
AcDbEntity
  8
0
  6
DASHED
 62
     7
100
AcDbLine
 10
-71.128792
 20
133.72975
 30
0.0
 11
-71.128792
 21
134.72975
 31
0.0
  0
LINE
  5
F8
330
3D2
100
AcDbEntity
  8
0
  6
DASHED
 62
     7
100
AcDbLine
 10
-71.128792
 20
133.72975
 30
0.0
 11
-77.328804
 21
133.72975
 31
0.0
  0
LINE
  5
F9
330
3D2
100
AcDbEntity
  8
0
  6
DASHED
 62
     7
100
AcDbLine
 10
-55.128712
 20
133.72983
 30
0.0
 11
-53.12870799999998
 21
131.72981
 31
0.0
  0
LINE
  5
FA
330
3D2
100
AcDbEntity
  8
0
  6
DASHED
 62
     7
100
AcDbLine
 10
-61.32875099999999
 20
133.72968
 30
0.0
 11
-63.328754
 21
131.72968
 31
0.0
  0
LINE
  5
FB
330
3D2
100
AcDbEntity
  8
0
  6
DASHED
 62
     7
100
AcDbLine
 10
-61.32880400000001
 20
133.7297399999999
 30
0.0
 11
-61.32880400000001
 21
134.72975
 31
0.0
  0
LINE
  5
FC
330
3D2
100
AcDbEntity
  8
0
  6
DASHED
 62
     7
100
AcDbLine
 10
-55.128792
 20
133.7297399999999
 30
0.0
 11
-55.128792
 21
134.72975
 31
0.0
  0
LINE
  5
FD
330
3D2
100
AcDbEntity
  8
0
  6
DASHED
 62
     7
100
AcDbLine
 10
-55.128807
 20
133.72975
 30
0.0
 11
-61.32880400000001
 21
133.72975
 31
0.0
  0
LINE
  5
FE
330
3D2
100
AcDbEntity
  8
0
  6
DASHED
 62
     7
100
AcDbLine
 10
-5.2785735
 20
133.7297799999997
 30
0.0
 11
0.92143852
 21
133.7297799999997
 31
0.0
  0
LINE
  5
FF
330
3D2
100
AcDbEntity
  8
0
  6
DASHED
 62
     7
100
AcDbLine
 10
-21.27857399999999
 20
133.7297799999997
 30
0.0
 11
-15.07856199999999
 21
133.7297799999997
 31
0.0
  0
LINE
  5
100
330
3D2
100
AcDbEntity
  8
0
  6
DASHED
 62
     7
100
AcDbLine
 10
-5.278634499999999
 20
134.72981
 30
0.0
 11
-5.278634499999999
 21
133.72981
 31
0.0
  0
LINE
  5
101
330
3D2
100
AcDbEntity
  8
0
  6
DASHED
 62
     7
100
AcDbLine
 10
0.9213774799999999
 20
134.7298
 30
0.0
 11
0.9213774799999999
 21
133.72981
 31
0.0
  0
LINE
  5
102
330
3D2
100
AcDbEntity
  8
0
  6
DASHED
 62
     7
100
AcDbLine
 10
-21.278605
 20
134.72983
 30
0.0
 11
-21.278605
 21
133.7298399999999
 31
0.0
  0
LINE
  5
103
330
3D2
100
AcDbEntity
  8
0
  6
DASHED
 62
     7
100
AcDbLine
 10
-15.078592
 20
134.7298
 30
0.0
 11
-15.078592
 21
133.72981
 31
0.0
  0
LINE
  5
104
330
3D2
100
AcDbEntity
  8
0
  6
DASHED
 62
     7
100
AcDbLine
 10
2.921412199999998
 20
131.7298
 30
0.0
 11
0.92141038
 21
133.72981
 31
0.0
  0
LINE
  5
105
330
3D2
100
AcDbEntity
  8
0
  6
DASHED
 62
     7
100
AcDbLine
 10
-13.078605
 20
131.72977
 30
0.0
 11
-15.078607
 21
133.72977
 31
0.0
  0
LINE
  5
106
330
3D2
100
AcDbEntity
  8
0
  6
DASHED
 62
     7
100
AcDbLine
 10
-7.278604999999999
 20
131.7298
 30
0.0
 11
-5.2786026
 21
133.7298
 31
0.0
  0
LINE
  5
107
330
3D2
100
AcDbEntity
  8
0
  6
DASHED
 62
     7
100
AcDbLine
 10
-23.278601
 20
131.7298599999998
 30
0.0
 11
-21.278599
 21
133.72986
 31
0.0
  0
ARC
  5
108
330
3D2
100
AcDbEntity
  8
0
  6
PHANTOM
 62
     7
100
AcDbCircle
 10
-43.028816
 20
125.9047999999999
 30
0.0
 40
1.7249999
100
AcDbArc
 50
290.35464
 51
230.3811899999999
  0
ARC
  5
109
330
3D2
100
AcDbEntity
  8
0
  6
PHANTOM
 62
     7
100
AcDbCircle
 10
-42.42878
 20
123.22981
 30
0.0
 40
2.5
100
AcDbArc
 50
203.0737699999999
 51
270.00036
  0
ARC
  5
10A
330
3D2
100
AcDbEntity
  8
0
  6
PHANTOM
 62
     7
100
AcDbCircle
 10
-38.22879799999999
 20
125.74153
 30
0.0
 40
2.0
100
AcDbArc
 50
285.00001
 51
359.9999899999999
  0
ARC
  5
10B
330
3D2
100
AcDbEntity
  8
0
  6
PHANTOM
 62
     7
100
AcDbCircle
 10
-34.72879799999999
 20
123.32668
 30
0.0
 40
1.5
100
AcDbArc
 50
277.9998799999999
 51
359.9999899999999
  0
ARC
  5
10C
330
3D2
100
AcDbEntity
  8
0
  6
PHANTOM
 62
     7
100
AcDbCircle
 10
-41.92877999999999
 20
123.1972199999999
 30
0.0
 40
0.5
100
AcDbArc
 50
180.00002
 51
285.0000299999999
  0
ARC
  5
10D
330
3D2
100
AcDbEntity
  8
0
  6
Continuous
 62
     7
100
AcDbCircle
 10
-43.028816
 20
135.55476
 30
0.0
 40
1.7249999
100
AcDbArc
 50
129.6187699999999
 51
69.64534499999999
  0
ARC
  5
10E
330
3D2
100
AcDbEntity
  8
0
  6
PHANTOM
 62
     7
100
AcDbCircle
 10
-42.42878
 20
138.22981
 30
0.0
 40
2.5
100
AcDbArc
 50
89.99827399999999
 51
156.9262099999999
  0
ARC
  5
10F
330
3D2
100
AcDbEntity
  8
0
  6
PHANTOM
 62
     7
100
AcDbCircle
 10
-38.22879799999999
 20
135.71803
 30
0.0
 40
2.0
100
AcDbArc
 50
359.9999899999999
 51
74.99995799999997
  0
ARC
  5
110
330
3D2
100
AcDbEntity
  8
0
  6
PHANTOM
 62
     7
100
AcDbCircle
 10
-34.72879799999999
 20
138.1328899999998
 30
0.0
 40
1.5
100
AcDbArc
 50
359.9999899999999
 51
82.00009599999999
  0
ARC
  5
111
330
3D2
100
AcDbEntity
  8
0
  6
PHANTOM
 62
     7
100
AcDbCircle
 10
-41.92877999999999
 20
138.2623399999999
 30
0.0
 40
0.5
100
AcDbArc
 50
74.99995799999997
 51
179.99995
  0
ARC
  5
112
330
3D2
100
AcDbEntity
  8
0
  6
Continuous
 62
     7
100
AcDbCircle
 10
-43.028816
 20
135.55476
 30
0.0
 40
1.825
100
AcDbArc
 50
221.112
 51
64.99983700000001
  0
ARC
  5
113
330
3D2
100
AcDbEntity
  8
0
  6
PHANTOM
 62
     7
100
AcDbCircle
 10
-43.028816
 20
125.9047999999999
 30
0.0
 40
1.825
100
AcDbArc
 50
294.99975
 51
138.88796
  0
ARC
  5
114
330
3D2
100
AcDbEntity
  8
0
  6
Continuous
 62
     7
100
AcDbCircle
 10
-43.028816
 20
135.55476
 30
0.0
 40
3.799999999999999
100
AcDbArc
 50
266.98309
 51
273.01692
  0
ARC
  5
115
330
3D2
100
AcDbEntity
  8
0
  6
Continuous
 62
     7
100
AcDbCircle
 10
-43.028816
 20
135.55476
 30
0.0
 40
3.799999999999999
100
AcDbArc
 50
356.9830899999999
 51
3.016935499999997
  0
ARC
  5
116
330
3D2
100
AcDbEntity
  8
0
  6
Continuous
 62
     7
100
AcDbCircle
 10
-43.028816
 20
135.55476
 30
0.0
 40
3.799999999999999
100
AcDbArc
 50
326.9830799999999
 51
333.0169099999999
  0
ARC
  5
117
330
3D2
100
AcDbEntity
  8
0
  6
Continuous
 62
     7
100
AcDbCircle
 10
-43.028816
 20
135.55476
 30
0.0
 40
3.799999999999999
100
AcDbArc
 50
296.98315
 51
303.01693
  0
ARC
  5
118
330
3D2
100
AcDbEntity
  8
0
  6
PHANTOM
 62
     7
100
AcDbCircle
 10
-43.028816
 20
125.9047999999999
 30
0.0
 40
3.799999999999999
100
AcDbArc
 50
341.9828499999999
 51
348.01687
  0
ARC
  5
119
330
3D2
100
AcDbEntity
  8
0
  6
Continuous
 62
     7
100
AcDbCircle
 10
-39.01111599999999
 20
132.95399
 30
0.0
 40
4.0
100
AcDbArc
 50
197.3663099999999
 51
227.43675
  0
ARC
  5
11A
330
3D2
100
AcDbEntity
  8
0
  6
PHANTOM
 62
     7
100
AcDbCircle
 10
-46.236397
 20
129.4567999999999
 30
0.0
 40
4.0
100
AcDbArc
 50
2.366564899999997
 51
32.43710099999999
  0
ARC
  5
11B
330
3D2
100
AcDbEntity
  8
0
  6
PHANTOM
 62
     7
100
AcDbCircle
 10
-39.82117499999999
 20
129.45686
 30
0.0
 40
4.0
100
AcDbArc
 50
147.56381
 51
170.10977
  0
ARC
  5
11C
330
3D2
100
AcDbEntity
  8
0
  6
Continuous
 62
     7
100
AcDbCircle
 10
-47.046455
 20
132.95399
 30
0.0
 40
4.0
100
AcDbArc
 50
312.6505799999999
 51
342.63382
  0
ARC
  5
11D
330
3D2
100
AcDbEntity
  8
0
  6
Continuous
 62
     7
100
AcDbCircle
 10
-43.028816
 20
135.55476
 30
0.0
 40
5.699999799999999
100
AcDbArc
 50
283.3079999999999
 51
286.6921500000001
  0
ARC
  5
11E
330
3D2
100
AcDbEntity
  8
0
  6
Continuous
 62
     7
100
AcDbCircle
 10
-43.028816
 20
135.55476
 30
0.0
 40
5.699999799999999
100
AcDbArc
 50
253.30784
 51
256.69215
  0
ARC
  5
11F
330
3D2
100
AcDbEntity
  8
0
  6
Continuous
 62
     7
100
AcDbCircle
 10
-45.207771
 20
131.29359
 30
0.0
 40
4.0
100
AcDbArc
 50
342.5631800000001
 51
12.63365099999999
  0
ARC
  5
120
330
3D2
100
AcDbEntity
  8
0
  6
PHANTOM
 62
     7
100
AcDbCircle
 10
-38.474892
 20
127.37715
 30
0.0
 40
4.0
100
AcDbArc
 50
117.56343
 51
147.6336899999998
  0
ARC
  5
121
330
3D2
100
AcDbEntity
  8
0
  6
PHANTOM
 62
     7
100
AcDbCircle
 10
-44.03064699999998
 20
130.58479
 30
0.0
 40
4.0
100
AcDbArc
 50
332.36615
 51
2.436560699999999
  0
ARC
  5
122
330
3D2
100
AcDbEntity
  8
0
  6
Continuous
 62
     7
100
AcDbCircle
 10
-38.249001
 20
135.31123
 30
0.0
 40
4.0
100
AcDbArc
 50
227.36644
 51
257.43694
  0
ARC
  5
123
330
3D2
100
AcDbEntity
  8
0
  6
Continuous
 62
     7
100
AcDbCircle
 10
-42.78525499999999
 20
130.77498
 30
0.0
 40
4.0
100
AcDbArc
 50
12.56332699999999
 51
42.63374
  0
ARC
  5
124
330
3D2
100
AcDbEntity
  8
0
  6
Continuous
 62
     7
100
AcDbCircle
 10
-43.028816
 20
135.55476
 30
0.0
 40
5.699999799999999
100
AcDbArc
 50
313.30796
 51
316.69216
  0
ARC
  5
125
330
3D2
100
AcDbEntity
  8
0
  6
PHANTOM
 62
     7
100
AcDbCircle
 10
-43.028816
 20
125.9047999999999
 30
0.0
 40
5.699999799999999
100
AcDbArc
 50
88.30797999999999
 51
91.692148
  0
ARC
  5
126
330
3D2
100
AcDbEntity
  8
0
  6
PHANTOM
 62
     7
100
AcDbCircle
 10
-43.028816
 20
125.9047999999999
 30
0.0
 40
5.699999799999999
100
AcDbArc
 50
358.30782
 51
1.6920998
  0
ARC
  5
127
330
3D2
100
AcDbEntity
  8
0
  6
Continuous
 62
     7
100
AcDbCircle
 10
-33.37879199999999
 20
135.55476
 30
0.0
 40
5.699999799999999
100
AcDbArc
 50
208.30777
 51
211.69221
  0
ARC
  5
128
330
3D2
100
AcDbEntity
  8
0
  6
Continuous
 62
     7
100
AcDbCircle
 10
-33.37879199999999
 20
135.55476
 30
0.0
 40
5.699999799999999
100
AcDbArc
 50
178.3078899999999
 51
181.6921199999999
  0
ARC
  5
129
330
3D2
100
AcDbEntity
  8
0
  6
Continuous
 62
     7
100
AcDbCircle
 10
-40.8498
 20
131.29359
 30
0.0
 40
4.0
100
AcDbArc
 50
180.8123399999999
 51
197.43683
  0
ARC
  5
12A
330
3D2
100
AcDbEntity
  8
0
  6
Continuous
 62
     7
100
AcDbCircle
 10
-45.349373
 20
131.22981
 30
0.0
 40
0.5
100
AcDbArc
 50
0.81225976
 51
89.99996800000003
  0
ARC
  5
12B
330
3D2
100
AcDbEntity
  8
0
  6
PHANTOM
 62
     7
100
AcDbCircle
 10
-38.348824
 20
124.90291
 30
0.0
 40
4.0
100
AcDbArc
 50
87.56359899999997
 51
117.6339199999999
  0
ARC
  5
12C
330
3D2
100
AcDbEntity
  8
0
  6
PHANTOM
 62
     7
100
AcDbCircle
 10
-41.556404
 20
130.4586899999999
 30
0.0
 40
4.0
100
AcDbArc
 50
302.3656599999999
 51
332.43594
  0
ARC
  5
12D
330
3D2
100
AcDbEntity
  8
0
  6
PHANTOM
 62
     7
100
AcDbCircle
 10
-39.476753
 20
122.69716
 30
0.0
 40
4.0
100
AcDbArc
 50
57.56344099999999
 51
87.633813
  0
ARC
  5
12E
330
3D2
100
AcDbEntity
  8
0
  6
PHANTOM
 62
     7
100
AcDbCircle
 10
-39.476753
 20
129.11238
 30
0.0
 40
4.0
100
AcDbArc
 50
272.3664299999999
 51
302.43685
  0
ARC
  5
12F
330
3D2
100
AcDbEntity
  8
0
  6
PHANTOM
 62
     7
100
AcDbCircle
 10
-43.028816
 20
125.9047999999999
 30
0.0
 40
3.799999999999999
100
AcDbArc
 50
11.983034
 51
18.017069
  0
ARC
  5
130
330
3D2
100
AcDbEntity
  8
0
  6
PHANTOM
 62
     7
100
AcDbCircle
 10
-43.028816
 20
125.9047999999999
 30
0.0
 40
3.799999999999999
100
AcDbArc
 50
41.983055
 51
48.01709
  0
ARC
  5
131
330
3D2
100
AcDbEntity
  8
0
  6
PHANTOM
 62
     7
100
AcDbCircle
 10
-43.028816
 20
125.9047999999999
 30
0.0
 40
3.799999999999999
100
AcDbArc
 50
71.983008
 51
78.016907
  0
ARC
  5
132
330
3D2
100
AcDbEntity
  8
0
  6
Continuous
 62
     7
100
AcDbCircle
 10
-43.028816
 20
135.55476
 30
0.0
 40
5.699999799999999
100
AcDbArc
 50
13.307797
 51
16.593583
  0
ARC
  5
133
330
3D2
100
AcDbEntity
  8
0
  6
Continuous
 62
     7
100
AcDbCircle
 10
-43.028816
 20
135.55476
 30
0.0
 40
5.699999799999999
100
AcDbArc
 50
343.30791
 51
346.69216
  0
ARC
  5
134
330
3D2
100
AcDbEntity
  8
0
  6
Continuous
 62
     7
100
AcDbCircle
 10
-38.767616
 20
137.73378
 30
0.0
 40
4.0
100
AcDbArc
 50
257.36661
 51
287.43717
  0
ARC
  5
135
330
3D2
100
AcDbEntity
  8
0
  6
Continuous
 62
     7
100
AcDbCircle
 10
-40.427986
 20
131.5371199999999
 30
0.0
 40
4.0
100
AcDbArc
 50
42.56327999999999
 51
72.633639
  0
ARC
  5
136
330
3D2
100
AcDbEntity
  8
0
  6
Continuous
 62
     7
100
AcDbCircle
 10
-40.427986
 20
139.57246
 30
0.0
 40
4.0
100
AcDbArc
 50
287.3661799999999
 51
317.4364299999999
  0
ARC
  5
137
330
3D2
100
AcDbEntity
  8
0
  6
PHANTOM
 62
     7
100
AcDbCircle
 10
-44.25428
 20
130.22981
 30
0.0
 40
0.5
100
AcDbArc
 50
270.0
 51
350.10937
  0
ARC
  5
138
330
3D2
100
AcDbEntity
  8
0
  6
PHANTOM
 62
     7
100
AcDbCircle
 10
-49.228798
 20
125.22981
 30
0.0
 40
1.0
100
AcDbArc
 50
270.0
 51
359.9999899999999
  0
ARC
  5
139
330
3D2
100
AcDbEntity
  8
0
  6
Continuous
 62
     7
100
AcDbCircle
 10
-49.228798
 20
136.22981
 30
0.0
 40
1.0
100
AcDbArc
 50
359.9999899999999
 51
89.99996800000003
  0
ARC
  5
13A
330
3D2
100
AcDbEntity
  8
0
  6
Continuous
 62
     7
100
AcDbCircle
 10
-89.22878299999998
 20
132.72981
 30
0.0
 40
1.0
100
AcDbArc
 50
180.00002
 51
270.0
  0
ARC
  5
13B
330
3D2
100
AcDbEntity
  8
0
  6
PHANTOM
 62
     7
100
AcDbCircle
 10
-89.22878299999998
 20
128.7297499999999
 30
0.0
 40
1.0
100
AcDbArc
 50
89.999955
 51
180.00001
  0
ARC
  5
13C
330
3D2
100
AcDbEntity
  8
0
  6
Continuous
 62
     7
100
AcDbCircle
 10
-89.72878299999996
 20
134.22981
 30
0.0
 40
0.5
100
AcDbArc
 50
89.99998199999996
 51
180.00001
  0
ARC
  5
13D
330
3D2
100
AcDbEntity
  8
0
  6
PHANTOM
 62
     7
100
AcDbCircle
 10
-89.72878299999996
 20
127.22975
 30
0.0
 40
0.5
100
AcDbArc
 50
180.00002
 51
270.0
  0
ARC
  5
13E
330
3D2
100
AcDbEntity
  8
0
  6
Continuous
 62
     7
100
AcDbCircle
 10
-32.153328
 20
131.22981
 30
0.0
 40
0.5
100
AcDbArc
 50
89.99999599999998
 51
170.10936
  0
ARC
  5
13F
330
3D2
100
AcDbEntity
  8
0
  6
Continuous
 62
     7
100
AcDbCircle
 10
-27.178812
 20
136.22981
 30
0.0
 40
1.0
100
AcDbArc
 50
89.99999599999998
 51
179.9999799999999
  0
ARC
  5
140
330
3D2
100
AcDbEntity
  8
0
  6
Continuous
 62
     7
100
AcDbCircle
 10
-33.37879199999999
 20
135.55476
 30
0.0
 40
3.799999999999999
100
AcDbArc
 50
251.98302
 51
258.01692
  0
ARC
  5
141
330
3D2
100
AcDbEntity
  8
0
  6
Continuous
 62
     7
100
AcDbCircle
 10
-34.85120399999999
 20
131.00087
 30
0.0
 40
4.0
100
AcDbArc
 50
122.36565
 51
152.43593
  0
ARC
  5
142
330
3D2
100
AcDbEntity
  8
0
  6
Continuous
 62
     7
100
AcDbCircle
 10
-36.930855
 20
132.34718
 30
0.0
 40
4.0
100
AcDbArc
 50
92.36642399999999
 51
122.4368399999999
  0
ARC
  5
143
330
3D2
100
AcDbEntity
  8
0
  6
Continuous
 62
     7
100
AcDbCircle
 10
-33.37879199999999
 20
135.55476
 30
0.0
 40
3.799999999999999
100
AcDbArc
 50
191.98304
 51
198.0170799999999
  0
ARC
  5
144
330
3D2
100
AcDbEntity
  8
0
  6
Continuous
 62
     7
100
AcDbCircle
 10
12.821188
 20
132.72981
 30
0.0
 40
1.0
100
AcDbArc
 50
269.9999599999999
 51
0.0
  0
ARC
  5
145
330
3D2
100
AcDbEntity
  8
0
  6
Continuous
 62
     7
100
AcDbCircle
 10
13.321188
 20
134.22981
 30
0.0
 40
0.5
100
AcDbArc
 50
0.000013660378
 51
89.99999599999998
  0
ARC
  5
146
330
3D2
100
AcDbEntity
  8
0
  6
Continuous
 62
     7
100
AcDbCircle
 10
-33.37879199999999
 20
135.55476
 30
0.0
 40
3.799999999999999
100
AcDbArc
 50
221.98306
 51
228.0170999999999
  0
ARC
  5
147
330
3D2
100
AcDbEntity
  8
0
  6
Continuous
 62
     7
100
AcDbCircle
 10
-38.058784
 20
136.55666
 30
0.0
 40
4.0
100
AcDbArc
 50
267.56361
 51
297.6339299999999
  0
ARC
  5
148
330
3D2
100
AcDbEntity
  8
0
  6
Continuous
 62
     7
100
AcDbCircle
 10
-30.703806
 20
136.1547999999999
 30
0.0
 40
2.5
100
AcDbArc
 50
293.07376
 51
0.00035516984
  0
ARC
  5
149
330
3D2
100
AcDbEntity
  8
0
  6
Continuous
 62
     7
100
AcDbCircle
 10
-36.930855
 20
138.76241
 30
0.0
 40
4.0
100
AcDbArc
 50
237.5634499999999
 51
267.63382
  0
ARC
  5
14A
330
3D2
100
AcDbEntity
  8
0
  6
Continuous
 62
     7
100
AcDbCircle
 10
-33.37879199999999
 20
135.55476
 30
0.0
 40
1.825
100
AcDbArc
 50
114.9997399999999
 51
318.88795
  0
ARC
  5
14B
330
3D2
100
AcDbEntity
  8
0
  6
Continuous
 62
     7
100
AcDbCircle
 10
-33.37879199999999
 20
135.55476
 30
0.0
 40
3.799999999999999
100
AcDbArc
 50
161.9828399999999
 51
168.01686
  0
ARC
  5
14C
330
3D2
100
AcDbEntity
  8
0
  6
Continuous
 62
     7
100
AcDbCircle
 10
-30.171213
 20
132.00276
 30
0.0
 40
4.0
100
AcDbArc
 50
182.36657
 51
212.43711
  0
ARC
  5
14D
330
3D2
100
AcDbEntity
  8
0
  6
Continuous
 62
     7
100
AcDbCircle
 10
-36.586433
 20
132.0027
 30
0.0
 40
4.0
100
AcDbArc
 50
327.56381
 51
350.10978
  0
ARC
  5
14E
330
3D2
100
AcDbEntity
  8
0
  6
Continuous
 62
     7
100
AcDbCircle
 10
-37.932716
 20
134.08241
 30
0.0
 40
4.0
100
AcDbArc
 50
297.56344
 51
327.6337
  0
ARC
  5
14F
330
3D2
100
AcDbEntity
  8
0
  6
Continuous
 62
     7
100
AcDbCircle
 10
-32.376961
 20
130.8748299999998
 30
0.0
 40
4.0
100
AcDbArc
 50
152.3661399999998
 51
182.43655
  0
ARC
  5
150
330
3D2
100
AcDbEntity
  8
0
  6
Continuous
 62
     7
100
AcDbCircle
 10
-33.37879199999999
 20
135.55476
 30
0.0
 40
5.699999799999999
100
AcDbArc
 50
268.30799
 51
271.69216
  0
ARC
  5
151
330
3D2
100
AcDbEntity
  8
0
  6
Continuous
 62
     7
100
AcDbCircle
 10
-33.37879199999999
 20
135.55476
 30
0.0
 40
5.699999799999999
100
AcDbArc
 50
238.3079399999999
 51
241.69222
  0
ARC
  5
152
330
3D2
100
AcDbEntity
  8
0
  6
Continuous
 62
     7
100
AcDbCircle
 10
-33.37879199999999
 20
135.55476
 30
0.0
 40
1.7249999
100
AcDbArc
 50
20.35463299999999
 51
320.3811999999999
  0
ARC
  5
153
330
3D2
100
AcDbEntity
  8
0
  6
Continuous
 62
     7
100
AcDbCircle
 10
-30.671274
 20
136.6547999999999
 30
0.0
 40
0.5
100
AcDbArc
 50
270.00002
 51
15.000024
  0
ARC
  5
154
330
3D2
100
AcDbEntity
  8
0
  6
Continuous
 62
     7
100
AcDbCircle
 10
-33.215584
 20
140.35481
 30
0.0
 40
2.0
100
AcDbArc
 50
15.00001099999999
 51
89.99998199999996
  0
ARC
  5
155
330
3D2
100
AcDbEntity
  8
0
  6
Continuous
 62
     7
100
AcDbCircle
 10
-43.19202399999999
 20
140.35481
 30
0.0
 40
2.0
100
AcDbArc
 50
89.99998199999996
 51
164.99995
  0
ARC
  5
156
330
3D2
100
AcDbEntity
  8
0
  6
Continuous
 62
     7
100
AcDbCircle
 10
-45.73633599999999
 20
136.6547999999999
 30
0.0
 40
0.5
100
AcDbArc
 50
164.99995
 51
269.99995
  0
ARC
  5
157
330
3D2
100
AcDbEntity
  8
0
  6
PHANTOM
 62
     7
100
AcDbCircle
 10
-43.028816
 20
135.55476
 30
0.0
 40
1.7249999
100
AcDbArc
 50
219.61878
 51
159.64534
  0
ARC
  5
158
330
3D2
100
AcDbEntity
  8
0
  6
Continuous
 62
     7
100
AcDbCircle
 10
-45.703804
 20
136.1547999999999
 30
0.0
 40
2.5
100
AcDbArc
 50
179.9982699999999
 51
246.9262
  0
ARC
  5
159
330
3D2
100
AcDbEntity
  8
0
  6
Continuous
 62
     7
100
AcDbCircle
 10
-45.60687999999998
 20
143.85481
 30
0.0
 40
1.5
100
AcDbArc
 50
89.99998199999996
 51
172.00009
  0
ARC
  5
15A
330
3D2
100
AcDbEntity
  8
0
  6
Continuous
 62
     7
100
AcDbCircle
 10
-30.80073
 20
143.85481
 30
0.0
 40
1.5
100
AcDbArc
 50
7.9998727
 51
89.99998199999996
  0
ARC
  5
15B
330
3D2
100
AcDbEntity
  8
0
  6
PHANTOM
 62
     7
100
AcDbCircle
 10
-43.028816
 20
125.9047999999999
 30
0.0
 40
5.699999799999999
100
AcDbArc
 50
28.30762700000001
 51
31.692119
  0
ARC
  5
15C
330
3D2
100
AcDbEntity
  8
0
  6
PHANTOM
 62
     7
100
AcDbCircle
 10
-43.028816
 20
125.9047999999999
 30
0.0
 40
5.699999799999999
100
AcDbArc
 50
58.30788399999999
 51
61.69220799999999
  0
CIRCLE
  5
15D
330
3D2
100
AcDbEntity
  8
0
  6
Continuous
 62
     7
100
AcDbCircle
 10
-169.33025
 20
-21.755194
 30
0.0
 40
1.55
  0
CIRCLE
  5
15E
330
3D2
100
AcDbEntity
  8
0
  6
Continuous
 62
     7
100
AcDbCircle
 10
-169.33025
 20
-13.75520899999999
 30
0.0
 40
1.55
  0
CIRCLE
  5
15F
330
3D2
100
AcDbEntity
  8
0
  6
Continuous
 62
     7
100
AcDbCircle
 10
-169.33025
 20
6.269800199999997
 30
0.0
 40
1.55
  0
CIRCLE
  5
160
330
3D2
100
AcDbEntity
  8
0
  6
Continuous
 62
     7
100
AcDbCircle
 10
-169.33025
 20
14.269848
 30
0.0
 40
1.55
  0
CIRCLE
  5
161
330
3D2
100
AcDbEntity
  8
0
  6
Continuous
 62
     7
100
AcDbCircle
 10
-135.33025
 20
-21.755194
 30
0.0
 40
1.55
  0
CIRCLE
  5
162
330
3D2
100
AcDbEntity
  8
0
  6
Continuous
 62
     7
100
AcDbCircle
 10
-135.33025
 20
-13.75520899999999
 30
0.0
 40
1.55
  0
CIRCLE
  5
163
330
3D2
100
AcDbEntity
  8
0
  6
Continuous
 62
     7
100
AcDbCircle
 10
-135.33025
 20
6.269800199999997
 30
0.0
 40
1.55
  0
CIRCLE
  5
164
330
3D2
100
AcDbEntity
  8
0
  6
Continuous
 62
     7
100
AcDbCircle
 10
-135.33025
 20
14.269848
 30
0.0
 40
1.55
  0
CIRCLE
  5
165
330
3D2
100
AcDbEntity
  8
0
  6
Continuous
 62
     7
100
AcDbCircle
 10
137.9397699999999
 20
6.269800199999997
 30
0.0
 40
1.55
  0
CIRCLE
  5
166
330
3D2
100
AcDbEntity
  8
0
  6
Continuous
 62
     7
100
AcDbCircle
 10
137.9397699999999
 20
14.269848
 30
0.0
 40
1.55
  0
CIRCLE
  5
167
330
3D2
100
AcDbEntity
  8
0
  6
Continuous
 62
     7
100
AcDbCircle
 10
-118.3302399999999
 20
-3.7426968
 30
0.0
 40
1.25
  0
CIRCLE
  5
168
330
3D2
100
AcDbEntity
  8
0
  6
Continuous
 62
     7
100
AcDbCircle
 10
137.9397699999999
 20
6.269800199999997
 30
0.0
 40
2.549999999999998
  0
CIRCLE
  5
169
330
3D2
100
AcDbEntity
  8
0
  6
Continuous
 62
     7
100
AcDbCircle
 10
137.9397699999999
 20
14.269848
 30
0.0
 40
2.549999999999998
  0
CIRCLE
  5
16A
330
3D2
100
AcDbEntity
  8
0
  6
Continuous
 62
     7
100
AcDbCircle
 10
-169.33025
 20
-21.755194
 30
0.0
 40
2.549999999999998
  0
CIRCLE
  5
16B
330
3D2
100
AcDbEntity
  8
0
  6
Continuous
 62
     7
100
AcDbCircle
 10
-169.33025
 20
-13.75520899999999
 30
0.0
 40
2.549999999999998
  0
CIRCLE
  5
16C
330
3D2
100
AcDbEntity
  8
0
  6
Continuous
 62
     7
100
AcDbCircle
 10
-169.33025
 20
6.269800199999997
 30
0.0
 40
2.549999999999998
  0
CIRCLE
  5
16D
330
3D2
100
AcDbEntity
  8
0
  6
Continuous
 62
     7
100
AcDbCircle
 10
-169.33025
 20
14.269848
 30
0.0
 40
2.549999999999998
  0
CIRCLE
  5
16E
330
3D2
100
AcDbEntity
  8
0
  6
Continuous
 62
     7
100
AcDbCircle
 10
-135.33025
 20
14.269848
 30
0.0
 40
2.549999999999998
  0
CIRCLE
  5
16F
330
3D2
100
AcDbEntity
  8
0
  6
Continuous
 62
     7
100
AcDbCircle
 10
-135.33025
 20
6.269800199999997
 30
0.0
 40
2.549999999999998
  0
CIRCLE
  5
170
330
3D2
100
AcDbEntity
  8
0
  6
Continuous
 62
     7
100
AcDbCircle
 10
-135.33025
 20
-13.75520899999999
 30
0.0
 40
2.549999999999998
  0
CIRCLE
  5
171
330
3D2
100
AcDbEntity
  8
0
  6
Continuous
 62
     7
100
AcDbCircle
 10
-135.33025
 20
-21.755194
 30
0.0
 40
2.549999999999998
  0
CIRCLE
  5
172
330
3D2
100
AcDbEntity
  8
0
  6
Continuous
 62
     7
100
AcDbCircle
 10
69.93978100000001
 20
6.269800199999997
 30
0.0
 40
2.549999999999998
  0
CIRCLE
  5
173
330
3D2
100
AcDbEntity
  8
0
  6
Continuous
 62
     7
100
AcDbCircle
 10
69.93978100000001
 20
-13.75520899999999
 30
0.0
 40
2.549999999999998
  0
CIRCLE
  5
174
330
3D2
100
AcDbEntity
  8
0
  6
Continuous
 62
     7
100
AcDbCircle
 10
69.93978100000001
 20
-13.75520899999999
 30
0.0
 40
1.55
  0
CIRCLE
  5
175
330
3D2
100
AcDbEntity
  8
0
  6
Continuous
 62
     7
100
AcDbCircle
 10
69.93978100000001
 20
6.269800199999997
 30
0.0
 40
1.55
  0
CIRCLE
  5
176
330
3D2
100
AcDbEntity
  8
0
  6
Continuous
 62
     7
100
AcDbCircle
 10
-101.33024
 20
-21.755194
 30
0.0
 40
1.55
  0
CIRCLE
  5
177
330
3D2
100
AcDbEntity
  8
0
  6
Continuous
 62
     7
100
AcDbCircle
 10
-101.33024
 20
14.269848
 30
0.0
 40
1.55
  0
CIRCLE
  5
178
330
3D2
100
AcDbEntity
  8
0
  6
Continuous
 62
     7
100
AcDbCircle
 10
-101.33024
 20
-21.755194
 30
0.0
 40
2.549999999999998
  0
CIRCLE
  5
179
330
3D2
100
AcDbEntity
  8
0
  6
Continuous
 62
     7
100
AcDbCircle
 10
-101.33024
 20
14.269848
 30
0.0
 40
2.549999999999998
  0
CIRCLE
  5
17A
330
3D2
100
AcDbEntity
  8
0
  6
Continuous
 62
     7
100
AcDbCircle
 10
86.93978099999998
 20
-3.7426968
 30
0.0
 40
1.25
  0
CIRCLE
  5
17B
330
3D2
100
AcDbEntity
  8
0
  6
Continuous
 62
     7
100
AcDbCircle
 10
-33.330238
 20
6.269800199999997
 30
0.0
 40
1.55
  0
CIRCLE
  5
17C
330
3D2
100
AcDbEntity
  8
0
  6
Continuous
 62
     7
100
AcDbCircle
 10
-33.330238
 20
-13.75520899999999
 30
0.0
 40
1.55
  0
CIRCLE
  5
17D
330
3D2
100
AcDbEntity
  8
0
  6
Continuous
 62
     7
100
AcDbCircle
 10
-33.330238
 20
-13.75520899999999
 30
0.0
 40
2.549999999999998
  0
CIRCLE
  5
17E
330
3D2
100
AcDbEntity
  8
0
  6
Continuous
 62
     7
100
AcDbCircle
 10
-33.330238
 20
6.269800199999997
 30
0.0
 40
2.549999999999998
  0
CIRCLE
  5
17F
330
3D2
100
AcDbEntity
  8
0
  6
Continuous
 62
     7
100
AcDbCircle
 10
34.66976199999999
 20
-21.755194
 30
0.0
 40
1.55
  0
CIRCLE
  5
180
330
3D2
100
AcDbEntity
  8
0
  6
Continuous
 62
     7
100
AcDbCircle
 10
34.66976199999999
 20
14.269848
 30
0.0
 40
1.55
  0
CIRCLE
  5
181
330
3D2
100
AcDbEntity
  8
0
  6
Continuous
 62
     7
100
AcDbCircle
 10
34.66976199999999
 20
14.269848
 30
0.0
 40
2.549999999999998
  0
CIRCLE
  5
182
330
3D2
100
AcDbEntity
  8
0
  6
Continuous
 62
     7
100
AcDbCircle
 10
34.66976199999999
 20
-21.755194
 30
0.0
 40
2.549999999999998
  0
CIRCLE
  5
183
330
3D2
100
AcDbEntity
  8
0
  6
Continuous
 62
     7
100
AcDbCircle
 10
137.9397699999999
 20
-21.755194
 30
0.0
 40
2.549999999999998
  0
CIRCLE
  5
184
330
3D2
100
AcDbEntity
  8
0
  6
Continuous
 62
     7
100
AcDbCircle
 10
137.9397699999999
 20
-21.755194
 30
0.0
 40
1.55
  0
CIRCLE
  5
185
330
3D2
100
AcDbEntity
  8
0
  6
Continuous
 62
     7
100
AcDbCircle
 10
137.9397699999999
 20
-13.75520899999999
 30
0.0
 40
2.549999999999998
  0
CIRCLE
  5
186
330
3D2
100
AcDbEntity
  8
0
  6
Continuous
 62
     7
100
AcDbCircle
 10
137.9397699999999
 20
-13.75520899999999
 30
0.0
 40
1.55
  0
CIRCLE
  5
187
330
3D2
100
AcDbEntity
  8
0
  6
Continuous
 62
     7
100
AcDbCircle
 10
103.9397799999999
 20
-21.755194
 30
0.0
 40
2.549999999999998
  0
CIRCLE
  5
188
330
3D2
100
AcDbEntity
  8
0
  6
Continuous
 62
     7
100
AcDbCircle
 10
103.9397799999999
 20
-21.755194
 30
0.0
 40
1.55
  0
CIRCLE
  5
189
330
3D2
100
AcDbEntity
  8
0
  6
Continuous
 62
     7
100
AcDbCircle
 10
103.9397799999999
 20
-13.75520899999999
 30
0.0
 40
2.549999999999998
  0
CIRCLE
  5
18A
330
3D2
100
AcDbEntity
  8
0
  6
Continuous
 62
     7
100
AcDbCircle
 10
103.9397799999999
 20
-13.75520899999999
 30
0.0
 40
1.55
  0
CIRCLE
  5
18B
330
3D2
100
AcDbEntity
  8
0
  6
Continuous
 62
     7
100
AcDbCircle
 10
103.9397799999999
 20
6.269800199999997
 30
0.0
 40
2.549999999999998
  0
CIRCLE
  5
18C
330
3D2
100
AcDbEntity
  8
0
  6
Continuous
 62
     7
100
AcDbCircle
 10
103.9397799999999
 20
6.269800199999997
 30
0.0
 40
1.55
  0
CIRCLE
  5
18D
330
3D2
100
AcDbEntity
  8
0
  6
Continuous
 62
     7
100
AcDbCircle
 10
103.9397799999999
 20
14.269848
 30
0.0
 40
2.549999999999998
  0
CIRCLE
  5
18E
330
3D2
100
AcDbEntity
  8
0
  6
Continuous
 62
     7
100
AcDbCircle
 10
103.9397799999999
 20
14.269848
 30
0.0
 40
1.55
  0
TEXT
  5
193
330
3D2
100
AcDbEntity
  8
0
  6
Continuous
 62
     7
100
AcDbText
 10
-85.943122
 20
103.7943099999999
 30
0.0
 40
2.0
  1
（１３）
 41
0.85124966
100
AcDbText
  0
TEXT
  5
194
330
3D2
100
AcDbEntity
  8
0
  6
Continuous
 62
     7
100
AcDbText
 10
-57.793136
 20
103.7943099999999
 30
0.0
 40
2.0
  1
（１１）
 41
0.85124966
100
AcDbText
  0
TEXT
  5
198
330
3D2
100
AcDbEntity
  8
0
  6
Continuous
 62
     7
100
AcDbText
 10
-40.011108
 20
155.2540999999999
 30
0.0
 40
2.0
  1
20
 41
1.102041
100
AcDbText
  0
LINE
  5
199
330
3D2
100
AcDbEntity
  8
0
  6
Continuous
 62
     7
100
AcDbLine
 10
-48.22879799999999
 20
154.7541
 30
0.0
 11
-38.20380499999999
 21
154.7541
 31
0.0
  0
CIRCLE
  5
19A
330
3D2
100
AcDbEntity
  8
0
  6
Continuous
 62
     7
100
AcDbCircle
 10
-48.22879799999999
 20
154.7541
 30
0.0
 40
0.3
  0
LINE
  5
19B
330
3D2
100
AcDbEntity
  8
0
  6
Continuous
 62
     7
100
AcDbLine
 10
-28.178812
 20
154.7541
 30
0.0
 11
-38.20380499999999
 21
154.7541
 31
0.0
  0
CIRCLE
  5
19C
330
3D2
100
AcDbEntity
  8
0
  6
Continuous
 62
     7
100
AcDbCircle
 10
-28.178812
 20
154.7541
 30
0.0
 40
0.3
  0
LINE
  5
19D
330
3D2
100
AcDbEntity
  8
0
  6
Continuous
 62
     7
100
AcDbLine
 10
-48.22879799999999
 20
137.22981
 30
0.0
 11
-48.22879799999999
 21
157.04012
 31
0.0
  0
LINE
  5
19E
330
3D2
100
AcDbEntity
  8
0
  6
Continuous
 62
     7
100
AcDbLine
 10
-28.178812
 20
137.22981
 30
0.0
 11
-28.178812
 21
157.04012
 31
0.0
  0
TEXT
  5
19F
330
3D2
100
AcDbEntity
  8
0
  6
Continuous
 62
     7
100
AcDbText
 10
22.165548
 20
135.89053
 30
0.0
 40
2.0
  1
11.5
 50
90.00000300000001
 41
1.591836899999997
100
AcDbText
  0
LINE
  5
1A0
330
3D2
100
AcDbEntity
  8
0
  6
Continuous
 62
     7
100
AcDbLine
 10
22.665548
 20
145.35481
 30
0.0
 11
22.665548
 21
139.60481
 31
0.0
  0
CIRCLE
  5
1A1
330
3D2
100
AcDbEntity
  8
0
  6
Continuous
 62
     7
100
AcDbCircle
 10
22.665548
 20
145.35481
 30
0.0
 40
0.3
  0
LINE
  5
1A2
330
3D2
100
AcDbEntity
  8
0
  6
Continuous
 62
     7
100
AcDbLine
 10
22.665548
 20
133.85481
 30
0.0
 11
22.665548
 21
139.60481
 31
0.0
  0
CIRCLE
  5
1A3
330
3D2
100
AcDbEntity
  8
0
  6
Continuous
 62
     7
100
AcDbCircle
 10
22.665548
 20
133.85481
 30
0.0
 40
0.3
  0
LINE
  5
1A4
330
3D2
100
AcDbEntity
  8
0
  6
Continuous
 62
     7
100
AcDbLine
 10
-30.80073
 20
145.35481
 30
0.0
 11
23.865545
 21
145.35481
 31
0.0
  0
LINE
  5
1A5
330
3D2
100
AcDbEntity
  8
0
  6
Continuous
 62
     7
100
AcDbLine
 10
-28.178782
 20
133.85481
 30
0.0
 11
23.865545
 21
133.85481
 31
0.0
  0
TEXT
  5
1A6
330
3D2
100
AcDbEntity
  8
0
  6
Continuous
 62
     7
100
AcDbText
 10
-99.63093800000001
 20
127.5163399999999
 30
0.0
 40
2.0
  1
3
 50
89.900002
 41
1.071429
100
AcDbText
  0
LINE
  5
1A7
330
3D2
100
AcDbEntity
  8
0
  6
Continuous
 62
     7
100
AcDbLine
 10
-99.129692
 20
129.7297499999999
 30
0.0
 11
-99.129692
 21
128.22975
 31
0.0
  0
CIRCLE
  5
1A8
330
3D2
100
AcDbEntity
  8
0
  6
Continuous
 62
     7
100
AcDbCircle
 10
-99.129692
 20
129.7297499999999
 30
0.0
 40
0.3
  0
LINE
  5
1A9
330
3D2
100
AcDbEntity
  8
0
  6
Continuous
 62
     7
100
AcDbLine
 10
-99.129692
 20
126.7297499999999
 30
0.0
 11
-99.129692
 21
128.22975
 31
0.0
  0
CIRCLE
  5
1AA
330
3D2
100
AcDbEntity
  8
0
  6
Continuous
 62
     7
100
AcDbCircle
 10
-99.129692
 20
126.7297499999999
 30
0.0
 40
0.3
  0
LINE
  5
1AB
330
3D2
100
AcDbEntity
  8
0
  6
Continuous
 62
     7
100
AcDbLine
 10
-89.22878299999998
 20
129.7297499999999
 30
0.0
 11
-101.4156999999999
 21
129.7297499999999
 31
0.0
  0
LINE
  5
1AC
330
3D2
100
AcDbEntity
  8
0
  6
Continuous
 62
     7
100
AcDbLine
 10
-89.72878299999996
 20
126.7297499999999
 30
0.0
 11
-101.4156999999999
 21
126.7297499999999
 31
0.0
  0
TEXT
  5
1AD
330
3D2
100
AcDbEntity
  8
0
  6
Continuous
 62
     7
100
AcDbText
 10
-99.63093800000001
 20
132.5163399999999
 30
0.0
 40
2.0
  1
3
 50
89.900002
 41
1.071429
100
AcDbText
  0
LINE
  5
1AE
330
3D2
100
AcDbEntity
  8
0
  6
Continuous
 62
     7
100
AcDbLine
 10
-99.129692
 20
131.72975
 30
0.0
 11
-99.129692
 21
133.2297499999999
 31
0.0
  0
CIRCLE
  5
1AF
330
3D2
100
AcDbEntity
  8
0
  6
Continuous
 62
     7
100
AcDbCircle
 10
-99.129692
 20
131.72975
 30
0.0
 40
0.3
  0
LINE
  5
1B0
330
3D2
100
AcDbEntity
  8
0
  6
Continuous
 62
     7
100
AcDbLine
 10
-99.129692
 20
134.72975
 30
0.0
 11
-99.129692
 21
133.2297499999999
 31
0.0
  0
CIRCLE
  5
1B1
330
3D2
100
AcDbEntity
  8
0
  6
Continuous
 62
     7
100
AcDbCircle
 10
-99.129692
 20
134.72975
 30
0.0
 40
0.3
  0
LINE
  5
1B2
330
3D2
100
AcDbEntity
  8
0
  6
Continuous
 62
     7
100
AcDbLine
 10
-89.22878299999998
 20
131.72975
 30
0.0
 11
-101.4156999999999
 21
131.72975
 31
0.0
  0
LINE
  5
1B3
330
3D2
100
AcDbEntity
  8
0
  6
Continuous
 62
     7
100
AcDbLine
 10
-89.72878299999996
 20
134.72975
 30
0.0
 11
-101.4156999999999
 21
134.72975
 31
0.0
  0
TEXT
  5
1B4
330
3D2
100
AcDbEntity
  8
0
  6
Continuous
 62
     7
100
AcDbText
 10
-107.53633
 20
129.63206
 30
0.0
 40
2.0
  1
8
 50
89.900002
 41
1.071429
100
AcDbText
  0
LINE
  5
1B5
330
3D2
100
AcDbEntity
  8
0
  6
Continuous
 62
     7
100
AcDbLine
 10
-107.0350899999999
 20
134.72975
 30
0.0
 11
-107.0350899999999
 21
130.72975
 31
0.0
  0
CIRCLE
  5
1B6
330
3D2
100
AcDbEntity
  8
0
  6
Continuous
 62
     7
100
AcDbCircle
 10
-107.0350899999999
 20
134.72975
 30
0.0
 40
0.3
  0
LINE
  5
1B7
330
3D2
100
AcDbEntity
  8
0
  6
Continuous
 62
     7
100
AcDbLine
 10
-107.0350899999999
 20
126.7297499999999
 30
0.0
 11
-107.0350899999999
 21
130.72975
 31
0.0
  0
CIRCLE
  5
1B8
330
3D2
100
AcDbEntity
  8
0
  6
Continuous
 62
     7
100
AcDbCircle
 10
-107.0350899999999
 20
126.7297499999999
 30
0.0
 40
0.3
  0
LINE
  5
1B9
330
3D2
100
AcDbEntity
  8
0
  6
Continuous
 62
     7
100
AcDbLine
 10
-89.72878299999996
 20
134.72975
 30
0.0
 11
-109.3210999999999
 21
134.72975
 31
0.0
  0
LINE
  5
1BA
330
3D2
100
AcDbEntity
  8
0
  6
Continuous
 62
     7
100
AcDbLine
 10
-89.72878299999996
 20
126.7297499999999
 30
0.0
 11
-109.3210999999999
 21
126.7297499999999
 31
0.0
  0
TEXT
  5
1BB
330
3D2
100
AcDbEntity
  8
0
  6
Continuous
 62
     7
100
AcDbText
 10
-42.44311399999999
 20
98.591484
 30
0.0
 40
2.0
  1
15
 41
1.2857145
100
AcDbText
  0
LINE
  5
1BC
330
3D2
100
AcDbEntity
  8
0
  6
Continuous
 62
     7
100
AcDbLine
 10
-33.228767
 20
98.09148399999999
 30
0.0
 11
-40.728828
 21
98.09148399999999
 31
0.0
  0
CIRCLE
  5
1BD
330
3D2
100
AcDbEntity
  8
0
  6
Continuous
 62
     7
100
AcDbCircle
 10
-33.228767
 20
98.09148399999999
 30
0.0
 40
0.3
  0
LINE
  5
1BE
330
3D2
100
AcDbEntity
  8
0
  6
Continuous
 62
     7
100
AcDbLine
 10
-48.228889
 20
98.09148399999999
 30
0.0
 11
-40.728828
 21
98.09148399999999
 31
0.0
  0
CIRCLE
  5
1BF
330
3D2
100
AcDbEntity
  8
0
  6
Continuous
 62
     7
100
AcDbCircle
 10
-48.228889
 20
98.09148399999999
 30
0.0
 40
0.3
  0
TEXT
  5
1C0
330
3D2
100
AcDbEntity
  8
0
  6
Continuous
 62
     7
100
AcDbText
 10
-49.793182
 20
98.591484
 30
0.0
 40
2.0
  1
2
 41
1.071429
100
AcDbText
  0
LINE
  5
1C1
330
3D2
100
AcDbEntity
  8
0
  6
Continuous
 62
     7
100
AcDbLine
 10
-48.228889
 20
98.09148399999999
 30
0.0
 11
-49.078896
 21
98.09148399999999
 31
0.0
  0
CIRCLE
  5
1C2
330
3D2
100
AcDbEntity
  8
0
  6
Continuous
 62
     7
100
AcDbCircle
 10
-48.228889
 20
98.09148399999999
 30
0.0
 40
0.3
  0
LINE
  5
1C3
330
3D2
100
AcDbEntity
  8
0
  6
Continuous
 62
     7
100
AcDbLine
 10
-49.928902
 20
98.09148399999999
 30
0.0
 11
-49.078896
 21
98.09148399999999
 31
0.0
  0
CIRCLE
  5
1C4
330
3D2
100
AcDbEntity
  8
0
  6
Continuous
 62
     7
100
AcDbCircle
 10
-49.928902
 20
98.09148399999999
 30
0.0
 40
0.3
  0
LINE
  5
1C5
330
3D2
100
AcDbEntity
  8
0
  6
Continuous
 62
     7
100
AcDbLine
 10
-48.228889
 20
125.22981
 30
0.0
 11
-48.228889
 21
96.891487
 31
0.0
  0
LINE
  5
1C6
330
3D2
100
AcDbEntity
  8
0
  6
Continuous
 62
     7
100
AcDbLine
 10
-49.928902
 20
124.22981
 30
0.0
 11
-49.928902
 21
96.891487
 31
0.0
  0
TEXT
  5
1C7
330
3D2
100
AcDbEntity
  8
0
  6
Continuous
 62
     7
100
AcDbText
 10
-71.79317399999998
 20
98.591484
 30
0.0
 40
2.0
  1
40
 41
1.102041
100
AcDbText
  0
LINE
  5
1C8
330
3D2
100
AcDbEntity
  8
0
  6
Continuous
 62
     7
100
AcDbLine
 10
-49.928902
 20
98.09148399999999
 30
0.0
 11
-70.078888
 21
98.09148399999999
 31
0.0
  0
CIRCLE
  5
1C9
330
3D2
100
AcDbEntity
  8
0
  6
Continuous
 62
     7
100
AcDbCircle
 10
-49.928902
 20
98.09148399999999
 30
0.0
 40
0.3
  0
LINE
  5
1CA
330
3D2
100
AcDbEntity
  8
0
  6
Continuous
 62
     7
100
AcDbLine
 10
-90.228874
 20
98.09148399999999
 30
0.0
 11
-70.078888
 21
98.09148399999999
 31
0.0
  0
CIRCLE
  5
1CB
330
3D2
100
AcDbEntity
  8
0
  6
Continuous
 62
     7
100
AcDbCircle
 10
-90.228874
 20
98.09148399999999
 30
0.0
 40
0.3
  0
TEXT
  5
1CC
330
3D2
100
AcDbEntity
  8
0
  6
Continuous
 62
     7
100
AcDbText
 10
-63.443107
 20
90.653923
 30
0.0
 40
2.0
  1
57
 41
1.0285716
100
AcDbText
  0
LINE
  5
1CD
330
3D2
100
AcDbEntity
  8
0
  6
Continuous
 62
     7
100
AcDbLine
 10
-90.228874
 20
90.153923
 30
0.0
 11
-61.72882099999998
 21
90.153923
 31
0.0
  0
CIRCLE
  5
1CE
330
3D2
100
AcDbEntity
  8
0
  6
Continuous
 62
     7
100
AcDbCircle
 10
-90.228874
 20
90.153923
 30
0.0
 40
0.3
  0
LINE
  5
1CF
330
3D2
100
AcDbEntity
  8
0
  6
Continuous
 62
     7
100
AcDbLine
 10
-33.228767
 20
90.153923
 30
0.0
 11
-61.72882099999998
 21
90.153923
 31
0.0
  0
CIRCLE
  5
1D0
330
3D2
100
AcDbEntity
  8
0
  6
Continuous
 62
     7
100
AcDbCircle
 10
-33.228767
 20
90.153923
 30
0.0
 40
0.3
  0
LINE
  5
1D1
330
3D2
100
AcDbEntity
  8
0
  6
Continuous
 62
     7
100
AcDbLine
 10
-90.228874
 20
127.22981
 30
0.0
 11
-90.228874
 21
88.95392599999999
 31
0.0
  0
LINE
  5
1D2
330
3D2
100
AcDbEntity
  8
0
  6
Continuous
 62
     7
100
AcDbLine
 10
-33.228767
 20
123.32668
 30
0.0
 11
-33.228767
 21
88.95392599999999
 31
0.0
  0
TEXT
  5
1D3
330
3D2
100
AcDbEntity
  8
0
  6
Continuous
 62
     7
100
AcDbText
 10
138.92461
 20
40.369595
 30
0.0
 40
2.0
  1
C
 41
1.2857145
100
AcDbText
  0
LINE
  5
1D4
330
3D2
100
AcDbEntity
  8
0
  6
Continuous
 62
     7
100
AcDbLine
 10
143.9397699999999
 20
39.869595
 30
0.0
 11
140.9397699999999
 21
39.869595
 31
0.0
  0
CIRCLE
  5
1D5
330
3D2
100
AcDbEntity
  8
0
  6
Continuous
 62
     7
100
AcDbCircle
 10
143.9397699999999
 20
39.869595
 30
0.0
 40
0.3
  0
LINE
  5
1D6
330
3D2
100
AcDbEntity
  8
0
  6
Continuous
 62
     7
100
AcDbLine
 10
137.9397699999999
 20
39.869595
 30
0.0
 11
140.9397699999999
 21
39.869595
 31
0.0
  0
CIRCLE
  5
1D7
330
3D2
100
AcDbEntity
  8
0
  6
Continuous
 62
     7
100
AcDbCircle
 10
137.9397699999999
 20
39.869595
 30
0.0
 40
0.3
  0
LINE
  5
1D8
330
3D2
100
AcDbEntity
  8
0
  6
Continuous
 62
     7
100
AcDbLine
 10
137.9397699999999
 20
31.12746
 30
0.0
 11
137.9397699999999
 21
42.155598
 31
0.0
  0
TEXT
  5
1D9
330
3D2
100
AcDbEntity
  8
0
  6
Continuous
 62
     7
100
AcDbText
 10
-173.04453
 20
40.369595
 30
0.0
 40
2.0
  1
A
 41
1.071429
100
AcDbText
  0
LINE
  5
1DA
330
3D2
100
AcDbEntity
  8
0
  6
Continuous
 62
     7
100
AcDbLine
 10
-175.33025
 20
39.869595
 30
0.0
 11
-172.33025
 21
39.869595
 31
0.0
  0
CIRCLE
  5
1DB
330
3D2
100
AcDbEntity
  8
0
  6
Continuous
 62
     7
100
AcDbCircle
 10
-175.33025
 20
39.869595
 30
0.0
 40
0.3
  0
LINE
  5
1DC
330
3D2
100
AcDbEntity
  8
0
  6
Continuous
 62
     7
100
AcDbLine
 10
-169.33025
 20
39.869595
 30
0.0
 11
-172.33025
 21
39.869595
 31
0.0
  0
CIRCLE
  5
1DD
330
3D2
100
AcDbEntity
  8
0
  6
Continuous
 62
     7
100
AcDbCircle
 10
-169.33025
 20
39.869595
 30
0.0
 40
0.3
  0
LINE
  5
1DE
330
3D2
100
AcDbEntity
  8
0
  6
Continuous
 62
     7
100
AcDbLine
 10
-169.33025
 20
21.635998
 30
0.0
 11
-169.33025
 21
42.155598
 31
0.0
  0
TEXT
  5
1DF
330
3D2
100
AcDbEntity
  8
0
  6
Continuous
 62
     7
100
AcDbText
 10
-153.04453
 20
40.369595
 30
0.0
 40
2.0
  1
P
 41
1.071429
100
AcDbText
  0
LINE
  5
1E0
330
3D2
100
AcDbEntity
  8
0
  6
Continuous
 62
     7
100
AcDbLine
 10
-169.33025
 20
39.869595
 30
0.0
 11
-152.3302499999998
 21
39.869595
 31
0.0
  0
CIRCLE
  5
1E1
330
3D2
100
AcDbEntity
  8
0
  6
Continuous
 62
     7
100
AcDbCircle
 10
-169.33025
 20
39.869595
 30
0.0
 40
0.3
  0
LINE
  5
1E2
330
3D2
100
AcDbEntity
  8
0
  6
Continuous
 62
     7
100
AcDbLine
 10
-135.33025
 20
39.869595
 30
0.0
 11
-152.3302499999998
 21
39.869595
 31
0.0
  0
CIRCLE
  5
1E3
330
3D2
100
AcDbEntity
  8
0
  6
Continuous
 62
     7
100
AcDbCircle
 10
-135.33025
 20
39.869595
 30
0.0
 40
0.3
  0
LINE
  5
1E4
330
3D2
100
AcDbEntity
  8
0
  6
Continuous
 62
     7
100
AcDbLine
 10
-135.33025
 20
21.635998
 30
0.0
 11
-135.33025
 21
42.155598
 31
0.0
  0
TEXT
  5
1E5
330
3D2
100
AcDbEntity
  8
0
  6
Continuous
 62
     7
100
AcDbText
 10
-189.38023
 20
-6.4569523
 30
0.0
 40
2.0
  1
104
 50
90.00000300000001
 41
1.252747399999998
100
AcDbText
  0
LINE
  5
1E6
330
3D2
100
AcDbEntity
  8
0
  6
Continuous
 62
     7
100
AcDbLine
 10
-188.88023
 20
-29.75519399999999
 30
0.0
 11
-188.88023
 21
-3.7426729
 31
0.0
  0
CIRCLE
  5
1E7
330
3D2
100
AcDbEntity
  8
0
  6
Continuous
 62
     7
100
AcDbCircle
 10
-188.88023
 20
-29.75519399999999
 30
0.0
 40
0.3
  0
LINE
  5
1E8
330
3D2
100
AcDbEntity
  8
0
  6
Continuous
 62
     7
100
AcDbLine
 10
-188.88023
 20
22.26984799999999
 30
0.0
 11
-188.88023
 21
-3.7426729
 31
0.0
  0
CIRCLE
  5
1E9
330
3D2
100
AcDbEntity
  8
0
  6
Continuous
 62
     7
100
AcDbCircle
 10
-188.88023
 20
22.26984799999999
 30
0.0
 40
0.3
  0
LINE
  5
1EA
330
3D2
100
AcDbEntity
  8
0
  6
Continuous
 62
     7
100
AcDbLine
 10
-175.33025
 20
-29.75519399999999
 30
0.0
 11
-191.1662399999999
 21
-29.75519399999999
 31
0.0
  0
LINE
  5
1EB
330
3D2
100
AcDbEntity
  8
0
  6
Continuous
 62
     7
100
AcDbLine
 10
-175.33025
 20
22.26984799999999
 30
0.0
 11
-191.1662399999999
 21
22.26984799999999
 31
0.0
  0
TEXT
  5
1EC
330
3D2
100
AcDbEntity
  8
0
  6
Continuous
 62
     7
100
AcDbText
 10
-181.8629899999999
 20
-27.288078
 30
0.0
 40
2.0
  1
16
 50
89.900002
 41
1.2857145
100
AcDbText
  0
LINE
  5
1ED
330
3D2
100
AcDbEntity
  8
0
  6
Continuous
 62
     7
100
AcDbLine
 10
-181.36
 20
-29.75519399999999
 30
0.0
 11
-181.36
 21
-25.755194
 31
0.0
  0
CIRCLE
  5
1EE
330
3D2
100
AcDbEntity
  8
0
  6
Continuous
 62
     7
100
AcDbCircle
 10
-181.36
 20
-29.75519399999999
 30
0.0
 40
0.3
  0
LINE
  5
1EF
330
3D2
100
AcDbEntity
  8
0
  6
Continuous
 62
     7
100
AcDbLine
 10
-181.36
 20
-21.755194
 30
0.0
 11
-181.36
 21
-25.755194
 31
0.0
  0
CIRCLE
  5
1F0
330
3D2
100
AcDbEntity
  8
0
  6
Continuous
 62
     7
100
AcDbCircle
 10
-181.36
 20
-21.755194
 30
0.0
 40
0.3
  0
LINE
  5
1F1
330
3D2
100
AcDbEntity
  8
0
  6
Continuous
 62
     7
100
AcDbLine
 10
-175.33025
 20
-29.75519399999999
 30
0.0
 11
-183.64598
 21
-29.75519399999999
 31
0.0
  0
LINE
  5
1F2
330
3D2
100
AcDbEntity
  8
0
  6
Continuous
 62
     7
100
AcDbLine
 10
-178.51286
 20
-21.755194
 30
0.0
 11
-183.64598
 21
-21.755194
 31
0.0
  0
TEXT
  5
1F3
330
3D2
100
AcDbEntity
  8
0
  6
Continuous
 62
     7
100
AcDbText
 10
-181.86
 20
-19.469495
 30
0.0
 40
2.0
  1
16
 50
90.00000300000001
 41
1.2857145
100
AcDbText
  0
LINE
  5
1F4
330
3D2
100
AcDbEntity
  8
0
  6
Continuous
 62
     7
100
AcDbLine
 10
-181.36
 20
-21.755194
 30
0.0
 11
-181.36
 21
-17.755201
 31
0.0
  0
CIRCLE
  5
1F5
330
3D2
100
AcDbEntity
  8
0
  6
Continuous
 62
     7
100
AcDbCircle
 10
-181.36
 20
-21.755194
 30
0.0
 40
0.3
  0
LINE
  5
1F6
330
3D2
100
AcDbEntity
  8
0
  6
Continuous
 62
     7
100
AcDbLine
 10
-181.36
 20
-13.75520899999999
 30
0.0
 11
-181.36
 21
-17.755201
 31
0.0
  0
CIRCLE
  5
1F7
330
3D2
100
AcDbEntity
  8
0
  6
Continuous
 62
     7
100
AcDbCircle
 10
-181.36
 20
-13.75520899999999
 30
0.0
 40
0.3
  0
LINE
  5
1F8
330
3D2
100
AcDbEntity
  8
0
  6
Continuous
 62
     7
100
AcDbLine
 10
-178.8582
 20
-13.75520899999999
 30
0.0
 11
-183.64598
 21
-13.75520899999999
 31
0.0
  0
TEXT
  5
1F9
330
3D2
100
AcDbEntity
  8
0
  6
Continuous
 62
     7
100
AcDbText
 10
-181.86
 20
-10.46323899999999
 30
0.0
 40
2.0
  1
20
 50
90.00000300000001
 41
1.102041
100
AcDbText
  0
LINE
  5
1FA
330
3D2
100
AcDbEntity
  8
0
  6
Continuous
 62
     7
100
AcDbLine
 10
-181.36
 20
-13.75520899999999
 30
0.0
 11
-181.36
 21
-8.7489529
 31
0.0
  0
CIRCLE
  5
1FB
330
3D2
100
AcDbEntity
  8
0
  6
Continuous
 62
     7
100
AcDbCircle
 10
-181.36
 20
-13.75520899999999
 30
0.0
 40
0.3
  0
LINE
  5
1FC
330
3D2
100
AcDbEntity
  8
0
  6
Continuous
 62
     7
100
AcDbLine
 10
-181.36
 20
-3.7426968
 30
0.0
 11
-181.36
 21
-8.7489529
 31
0.0
  0
CIRCLE
  5
1FD
330
3D2
100
AcDbEntity
  8
0
  6
Continuous
 62
     7
100
AcDbCircle
 10
-181.36
 20
-3.7426968
 30
0.0
 40
0.3
  0
LINE
  5
1FE
330
3D2
100
AcDbEntity
  8
0
  6
Continuous
 62
     7
100
AcDbLine
 10
-179.12511
 20
-3.7426968
 30
0.0
 11
-183.64598
 21
-3.7426968
 31
0.0
  0
TEXT
  5
1FF
330
3D2
100
AcDbEntity
  8
0
  6
Continuous
 62
     7
100
AcDbText
 10
-181.86
 20
-0.45072671
 30
0.0
 40
2.0
  1
20
 50
90.00000300000001
 41
1.102041
100
AcDbText
  0
LINE
  5
200
330
3D2
100
AcDbEntity
  8
0
  6
Continuous
 62
     7
100
AcDbLine
 10
-181.36
 20
-3.7426968
 30
0.0
 11
-181.36
 21
1.2635517
 31
0.0
  0
CIRCLE
  5
201
330
3D2
100
AcDbEntity
  8
0
  6
Continuous
 62
     7
100
AcDbCircle
 10
-181.36
 20
-3.7426968
 30
0.0
 40
0.3
  0
LINE
  5
202
330
3D2
100
AcDbEntity
  8
0
  6
Continuous
 62
     7
100
AcDbLine
 10
-181.36
 20
6.269800199999997
 30
0.0
 11
-181.36
 21
1.2635517
 31
0.0
  0
CIRCLE
  5
203
330
3D2
100
AcDbEntity
  8
0
  6
Continuous
 62
     7
100
AcDbCircle
 10
-181.36
 20
6.269800199999997
 30
0.0
 40
0.3
  0
LINE
  5
204
330
3D2
100
AcDbEntity
  8
0
  6
Continuous
 62
     7
100
AcDbLine
 10
-178.97331
 20
6.269800199999997
 30
0.0
 11
-183.64598
 21
6.269800199999997
 31
0.0
  0
TEXT
  5
205
330
3D2
100
AcDbEntity
  8
0
  6
Continuous
 62
     7
100
AcDbText
 10
-181.86
 20
8.555529400000001
 30
0.0
 40
2.0
  1
16
 50
90.00000300000001
 41
1.2857145
100
AcDbText
  0
LINE
  5
206
330
3D2
100
AcDbEntity
  8
0
  6
Continuous
 62
     7
100
AcDbLine
 10
-181.36
 20
6.269800199999997
 30
0.0
 11
-181.36
 21
10.269824
 31
0.0
  0
CIRCLE
  5
207
330
3D2
100
AcDbEntity
  8
0
  6
Continuous
 62
     7
100
AcDbCircle
 10
-181.36
 20
6.269800199999997
 30
0.0
 40
0.3
  0
LINE
  5
208
330
3D2
100
AcDbEntity
  8
0
  6
Continuous
 62
     7
100
AcDbLine
 10
-181.36
 20
14.269848
 30
0.0
 11
-181.36
 21
10.269824
 31
0.0
  0
CIRCLE
  5
209
330
3D2
100
AcDbEntity
  8
0
  6
Continuous
 62
     7
100
AcDbCircle
 10
-181.36
 20
14.269848
 30
0.0
 40
0.3
  0
LINE
  5
20A
330
3D2
100
AcDbEntity
  8
0
  6
Continuous
 62
     7
100
AcDbLine
 10
-179.20354
 20
14.269848
 30
0.0
 11
-183.64598
 21
14.269848
 31
0.0
  0
TEXT
  5
20B
330
3D2
100
AcDbEntity
  8
0
  6
Continuous
 62
     7
100
AcDbText
 10
-181.86
 20
16.55556199999999
 30
0.0
 40
2.0
  1
16
 50
90.00000300000001
 41
1.2857145
100
AcDbText
  0
LINE
  5
20C
330
3D2
100
AcDbEntity
  8
0
  6
Continuous
 62
     7
100
AcDbLine
 10
-181.36
 20
14.269848
 30
0.0
 11
-181.36
 21
18.26984799999999
 31
0.0
  0
CIRCLE
  5
20D
330
3D2
100
AcDbEntity
  8
0
  6
Continuous
 62
     7
100
AcDbCircle
 10
-181.36
 20
14.269848
 30
0.0
 40
0.3
  0
LINE
  5
20E
330
3D2
100
AcDbEntity
  8
0
  6
Continuous
 62
     7
100
AcDbLine
 10
-181.36
 20
22.26984799999999
 30
0.0
 11
-181.36
 21
18.26984799999999
 31
0.0
  0
CIRCLE
  5
20F
330
3D2
100
AcDbEntity
  8
0
  6
Continuous
 62
     7
100
AcDbCircle
 10
-181.36
 20
22.26984799999999
 30
0.0
 40
0.3
  0
LINE
  5
210
330
3D2
100
AcDbEntity
  8
0
  6
Continuous
 62
     7
100
AcDbLine
 10
-175.33025
 20
22.26984799999999
 30
0.0
 11
-183.64598
 21
22.26984799999999
 31
0.0
  0
TEXT
  5
211
330
3D2
100
AcDbEntity
  8
0
  6
Continuous
 62
     7
100
AcDbText
 10
102.2254999999999
 20
40.369595
 30
0.0
 40
2.0
  1
2P
 41
1.0285716
100
AcDbText
  0
LINE
  5
212
330
3D2
100
AcDbEntity
  8
0
  6
Continuous
 62
     7
100
AcDbLine
 10
69.93978100000001
 20
39.869595
 30
0.0
 11
103.9397799999999
 21
39.869595
 31
0.0
  0
CIRCLE
  5
213
330
3D2
100
AcDbEntity
  8
0
  6
Continuous
 62
     7
100
AcDbCircle
 10
69.93978100000001
 20
39.869595
 30
0.0
 40
0.3
  0
LINE
  5
214
330
3D2
100
AcDbEntity
  8
0
  6
Continuous
 62
     7
100
AcDbLine
 10
137.9397699999999
 20
39.869595
 30
0.0
 11
103.9397799999999
 21
39.869595
 31
0.0
  0
CIRCLE
  5
215
330
3D2
100
AcDbEntity
  8
0
  6
Continuous
 62
     7
100
AcDbCircle
 10
137.9397699999999
 20
39.869595
 30
0.0
 40
0.3
  0
LINE
  5
216
330
3D2
100
AcDbEntity
  8
0
  6
Continuous
 62
     7
100
AcDbLine
 10
69.93978100000001
 20
31.12746
 30
0.0
 11
69.93978100000001
 21
42.155598
 31
0.0
  0
TEXT
  5
217
330
3D2
100
AcDbEntity
  8
0
  6
Continuous
 62
     7
100
AcDbText
 10
-119.0445199999999
 20
40.369595
 30
0.0
 40
2.0
  1
P
 41
1.071429
100
AcDbText
  0
LINE
  5
218
330
3D2
100
AcDbEntity
  8
0
  6
Continuous
 62
     7
100
AcDbLine
 10
-135.33025
 20
39.869595
 30
0.0
 11
-118.3302399999999
 21
39.869595
 31
0.0
  0
CIRCLE
  5
219
330
3D2
100
AcDbEntity
  8
0
  6
Continuous
 62
     7
100
AcDbCircle
 10
-135.33025
 20
39.869595
 30
0.0
 40
0.3
  0
LINE
  5
21A
330
3D2
100
AcDbEntity
  8
0
  6
Continuous
 62
     7
100
AcDbLine
 10
-101.33024
 20
39.869595
 30
0.0
 11
-118.3302399999999
 21
39.869595
 31
0.0
  0
CIRCLE
  5
21B
330
3D2
100
AcDbEntity
  8
0
  6
Continuous
 62
     7
100
AcDbCircle
 10
-101.33024
 20
39.869595
 30
0.0
 40
0.3
  0
LINE
  5
21C
330
3D2
100
AcDbEntity
  8
0
  6
Continuous
 62
     7
100
AcDbLine
 10
-101.33024
 20
21.635998
 30
0.0
 11
-101.33024
 21
42.155598
 31
0.0
  0
TEXT
  5
21D
330
3D2
100
AcDbEntity
  8
0
  6
Continuous
 62
     7
100
AcDbText
 10
-69.044524
 20
40.369595
 30
0.0
 40
2.0
  1
2P
 41
1.0285716
100
AcDbText
  0
LINE
  5
21E
330
3D2
100
AcDbEntity
  8
0
  6
Continuous
 62
     7
100
AcDbLine
 10
-101.33024
 20
39.869595
 30
0.0
 11
-67.33023799999999
 21
39.869595
 31
0.0
  0
CIRCLE
  5
21F
330
3D2
100
AcDbEntity
  8
0
  6
Continuous
 62
     7
100
AcDbCircle
 10
-101.33024
 20
39.869595
 30
0.0
 40
0.3
  0
LINE
  5
220
330
3D2
100
AcDbEntity
  8
0
  6
Continuous
 62
     7
100
AcDbLine
 10
-33.330238
 20
39.869595
 30
0.0
 11
-67.33023799999999
 21
39.869595
 31
0.0
  0
CIRCLE
  5
221
330
3D2
100
AcDbEntity
  8
0
  6
Continuous
 62
     7
100
AcDbCircle
 10
-33.330238
 20
39.869595
 30
0.0
 40
0.3
  0
LINE
  5
222
330
3D2
100
AcDbEntity
  8
0
  6
Continuous
 62
     7
100
AcDbLine
 10
-33.330238
 20
21.635998
 30
0.0
 11
-33.330238
 21
42.155598
 31
0.0
  0
TEXT
  5
223
330
3D2
100
AcDbEntity
  8
0
  6
Continuous
 62
     7
100
AcDbText
 10
-1.0445245
 20
40.369595
 30
0.0
 40
2.0
  1
2P
 41
1.0285716
100
AcDbText
  0
LINE
  5
224
330
3D2
100
AcDbEntity
  8
0
  6
Continuous
 62
     7
100
AcDbLine
 10
-33.330238
 20
39.869595
 30
0.0
 11
0.66976166
 21
39.869595
 31
0.0
  0
CIRCLE
  5
225
330
3D2
100
AcDbEntity
  8
0
  6
Continuous
 62
     7
100
AcDbCircle
 10
-33.330238
 20
39.869595
 30
0.0
 40
0.3
  0
LINE
  5
226
330
3D2
100
AcDbEntity
  8
0
  6
Continuous
 62
     7
100
AcDbLine
 10
34.66976199999999
 20
39.869595
 30
0.0
 11
0.66976166
 21
39.869595
 31
0.0
  0
CIRCLE
  5
227
330
3D2
100
AcDbEntity
  8
0
  6
Continuous
 62
     7
100
AcDbCircle
 10
34.66976199999999
 20
39.869595
 30
0.0
 40
0.3
  0
LINE
  5
228
330
3D2
100
AcDbEntity
  8
0
  6
Continuous
 62
     7
100
AcDbLine
 10
34.66976199999999
 20
21.635998
 30
0.0
 11
34.66976199999999
 21
42.155598
 31
0.0
  0
TEXT
  5
229
330
3D2
100
AcDbEntity
  8
0
  6
Continuous
 62
     7
100
AcDbText
 10
145.65406
 20
55.39899399999999
 30
0.0
 40
3.2
  1
  
 50
180.00001
 41
1.285706299999999
 51
90.0
100
AcDbText
  0
LINE
  5
22A
330
3D2
100
AcDbEntity
  8
0
  6
Continuous
 62
     7
100
AcDbLine
 10
143.9397699999999
 20
54.39899399999998
 30
0.0
 11
-15.69523599999999
 21
54.39899399999998
 31
0.0
  0
CIRCLE
  5
22B
330
3D2
100
AcDbEntity
  8
0
  6
Continuous
 62
     7
100
AcDbCircle
 10
143.9397699999999
 20
54.39899399999998
 30
0.0
 40
0.3
  0
LINE
  5
22C
330
3D2
100
AcDbEntity
  8
0
  6
Continuous
 62
     7
100
AcDbLine
 10
-175.33025
 20
54.39899399999998
 30
0.0
 11
-15.69523599999999
 21
54.39899399999998
 31
0.0
  0
CIRCLE
  5
22D
330
3D2
100
AcDbEntity
  8
0
  6
Continuous
 62
     7
100
AcDbCircle
 10
-175.33025
 20
54.39899399999998
 30
0.0
 40
0.3
  0
LINE
  5
22E
330
3D2
100
AcDbEntity
  8
0
  6
Continuous
 62
     7
100
AcDbLine
 10
143.9397699999999
 20
22.26984799999999
 30
0.0
 11
143.9397699999999
 21
56.685005
 31
0.0
  0
LINE
  5
22F
330
3D2
100
AcDbEntity
  8
0
  6
Continuous
 62
     7
100
AcDbLine
 10
-175.33025
 20
22.26984799999999
 30
0.0
 11
-175.33025
 21
56.68499
 31
0.0
  0
TEXT
  5
230
330
3D2
100
AcDbEntity
  8
0
  6
Continuous
 62
     7
100
AcDbText
 10
-83.94312199999999
 20
108.99851
 30
0.0
 40
2.0
  1
16
 41
1.2857145
100
AcDbText
  0
LINE
  5
231
330
3D2
100
AcDbEntity
  8
0
  6
Continuous
 62
     7
100
AcDbLine
 10
-90.228874
 20
108.49851
 30
0.0
 11
-82.22883600000001
 21
108.49851
 31
0.0
  0
CIRCLE
  5
232
330
3D2
100
AcDbEntity
  8
0
  6
Continuous
 62
     7
100
AcDbCircle
 10
-90.228874
 20
108.49851
 30
0.0
 40
0.3
  0
LINE
  5
233
330
3D2
100
AcDbEntity
  8
0
  6
Continuous
 62
     7
100
AcDbLine
 10
-74.228798
 20
108.49851
 30
0.0
 11
-82.22883600000001
 21
108.49851
 31
0.0
  0
CIRCLE
  5
234
330
3D2
100
AcDbEntity
  8
0
  6
Continuous
 62
     7
100
AcDbCircle
 10
-74.228798
 20
108.49851
 30
0.0
 40
0.3
  0
LINE
  5
235
330
3D2
100
AcDbEntity
  8
0
  6
Continuous
 62
     7
100
AcDbLine
 10
-74.228798
 20
128.2853499999999
 30
0.0
 11
-74.228798
 21
107.29851
 31
0.0
  0
TEXT
  5
236
330
3D2
100
AcDbEntity
  8
0
  6
Continuous
 62
     7
100
AcDbText
 10
-67.943084
 20
108.99851
 30
0.0
 40
2.0
  1
16
 41
1.2857145
100
AcDbText
  0
LINE
  5
237
330
3D2
100
AcDbEntity
  8
0
  6
Continuous
 62
     7
100
AcDbLine
 10
-74.228798
 20
108.49851
 30
0.0
 11
-66.22879799999998
 21
108.49851
 31
0.0
  0
CIRCLE
  5
238
330
3D2
100
AcDbEntity
  8
0
  6
Continuous
 62
     7
100
AcDbCircle
 10
-74.228798
 20
108.49851
 30
0.0
 40
0.3
  0
LINE
  5
239
330
3D2
100
AcDbEntity
  8
0
  6
Continuous
 62
     7
100
AcDbLine
 10
-58.22879799999999
 20
108.49851
 30
0.0
 11
-66.22879799999998
 21
108.49851
 31
0.0
  0
CIRCLE
  5
23A
330
3D2
100
AcDbEntity
  8
0
  6
Continuous
 62
     7
100
AcDbCircle
 10
-58.22879799999999
 20
108.49851
 30
0.0
 40
0.3
  0
LINE
  5
23B
330
3D2
100
AcDbEntity
  8
0
  6
Continuous
 62
     7
100
AcDbLine
 10
-58.22879799999999
 20
128.2853499999999
 30
0.0
 11
-58.22879799999999
 21
107.29851
 31
0.0
  0
TEXT
  5
23C
330
3D2
100
AcDbEntity
  8
0
  6
Continuous
 62
     7
100
AcDbText
 10
-54.793136
 20
108.99851
 30
0.0
 40
2.0
  1
8
 41
1.071429
100
AcDbText
  0
LINE
  5
23D
330
3D2
100
AcDbEntity
  8
0
  6
Continuous
 62
     7
100
AcDbLine
 10
-58.22879799999999
 20
108.49851
 30
0.0
 11
-54.07885
 21
108.49851
 31
0.0
  0
CIRCLE
  5
23E
330
3D2
100
AcDbEntity
  8
0
  6
Continuous
 62
     7
100
AcDbCircle
 10
-58.22879799999999
 20
108.49851
 30
0.0
 40
0.3
  0
LINE
  5
23F
330
3D2
100
AcDbEntity
  8
0
  6
Continuous
 62
     7
100
AcDbLine
 10
-49.928902
 20
108.49851
 30
0.0
 11
-54.07885
 21
108.49851
 31
0.0
  0
CIRCLE
  5
240
330
3D2
100
AcDbEntity
  8
0
  6
Continuous
 62
     7
100
AcDbCircle
 10
-49.928902
 20
108.49851
 30
0.0
 40
0.3
  0
LINE
  5
241
330
3D2
100
AcDbEntity
  8
0
  6
Continuous
 62
     7
100
AcDbLine
 10
-58.22879799999999
 20
111.73721
 30
0.0
 11
-58.22879799999999
 21
107.29851
 31
0.0
  0
LINE
  5
242
330
3D2
100
AcDbEntity
  8
0
  6
Continuous
 62
     7
100
AcDbLine
 10
-75.14610299999998
 20
134.8169399999999
 30
0.0
 11
-94.819183
 21
156.39388
 31
0.0
  0
LINE
  5
243
330
3D2
100
AcDbEntity
  8
0
  6
Continuous
 62
     7
100
AcDbLine
 10
-94.819183
 20
156.39388
 30
0.0
 11
-124.2193399999999
 21
156.39388
 31
0.0
  0
LINE
  5
244
330
3D2
100
AcDbEntity
  8
0
  6
Continuous
 62
     7
100
AcDbLine
 10
-75.14610299999998
 20
134.8169399999999
 30
0.0
 11
-77.90631999999998
 21
136.3600499999998
 31
0.0
  0
LINE
  5
245
330
3D2
100
AcDbEntity
  8
0
  6
Continuous
 62
     7
100
AcDbLine
 10
-75.14610299999998
 20
134.8169399999999
 30
0.0
 11
-76.42840799999998
 21
137.7075599999998
 31
0.0
  0
TEXT
  5
246
330
3D2
100
AcDbEntity
  8
0
  6
Continuous
 62
     7
100
AcDbText
 10
-123.64791
 20
156.8938799999999
 30
0.0
 40
2.0
  1
Ｎ－%%C６．２×%%C１０．５サラ
 41
0.8634387799999998
100
AcDbText
  0
CIRCLE
  5
247
330
3D2
100
AcDbEntity
  8
0
  6
Continuous
 62
     7
100
AcDbCircle
 10
-15.695229
 20
58.398994
 30
0.0
 40
3.0
  0
CIRCLE
  5
248
330
3D2
100
AcDbEntity
  8
0
  6
Continuous
 62
     7
100
AcDbCircle
 10
-15.695229
 20
58.398994
 30
0.0
 40
3.0
  0
TEXT
  5
249
330
3D2
100
AcDbEntity
  8
0
  6
Continuous
 62
     7
100
AcDbText
 10
-16.83808599999999
 20
56.798994
 30
0.0
 40
3.2
  1
L
 41
1.0714291
100
AcDbText
  0
TEXT
  5
38D
330
3D2
100
AcDbEntity
  8
0
  6
Continuous
 62
     7
100
AcDbText
 10
67.19996817385157
 20
156.8938799999999
 30
0.0
 40
2.0
  1
DH-805は（　）寸法を参照
 41
0.8634387799999998
100
AcDbText
  0
ENDSEC
  0
SECTION
  2
OBJECTS
  0
DICTIONARY
  5
3A8
330
0
100
AcDbDictionary
281
     1
  3
ACAD_COLOR
350
3CB
  3
ACAD_GROUP
350
3A9
  3
ACAD_LAYOUT
350
3CA
  3
ACAD_MATERIAL
350
3AC
  3
ACAD_MLINESTYLE
350
3C7
  3
ACAD_PLOTSETTINGS
350
3C9
  3
ACAD_PLOTSTYLENAME
350
3AA
  3
ACAD_TABLESTYLE
350
3CC
  3
ACAD_VISUALSTYLE
350
3B0
  3
AcDbVariableDictionary
350
482
  3
AcmDictionary
350
45E
  3
AMG
350
40B
  3
AMGSNAPSETTINGS
350
4A0
  3
DWGPROPS
350
4AA
  0
DICTIONARY
  5
3CB
102
{ACAD_REACTORS
330
3A8
102
}
330
3A8
100
AcDbDictionary
281
     1
  0
DICTIONARY
  5
3A9
102
{ACAD_REACTORS
330
3A8
102
}
330
3A8
100
AcDbDictionary
281
     1
  0
DICTIONARY
  5
3CA
102
{ACAD_REACTORS
330
3A8
102
}
330
3A8
100
AcDbDictionary
281
     1
  3
Model
350
3D5
  3
レイアウト1
350
3D1
  0
DICTIONARY
  5
3AC
102
{ACAD_REACTORS
330
3A8
102
}
330
3A8
100
AcDbDictionary
281
     1
  3
ByBlock
350
3AE
  3
ByLayer
350
3AD
  3
Global
350
3AF
  0
DICTIONARY
  5
3C7
102
{ACAD_REACTORS
330
3A8
102
}
330
3A8
100
AcDbDictionary
281
     1
  3
Standard
350
3C8
  0
DICTIONARY
  5
3C9
102
{ACAD_REACTORS
330
3A8
102
}
330
3A8
100
AcDbDictionary
281
     1
  0
ACDBDICTIONARYWDFLT
  5
3AA
102
{ACAD_REACTORS
330
3A8
102
}
330
3A8
100
AcDbDictionary
281
     1
  3
Normal
350
3AB
100
AcDbDictionaryWithDefault
340
3AB
  0
DICTIONARY
  5
3CC
102
{ACAD_REACTORS
330
3A8
102
}
330
3A8
100
AcDbDictionary
281
     1
  3
Standard
350
3CD
  0
DICTIONARY
  5
3B0
102
{ACAD_REACTORS
330
3A8
102
}
330
3A8
100
AcDbDictionary
281
     1
  3
2dWireframe
350
3B6
  3
3D Hidden
350
3B8
  3
3dWireframe
350
3B7
  3
Basic
350
3B5
  3
Brighten
350
3BC
  3
ColorChange
350
3C0
  3
Conceptual
350
3B9
  3
Dim
350
3BB
  3
Facepattern
350
3BF
  3
Flat
350
3B1
  3
FlatWithEdges
350
3B2
  3
Gouraud
350
3B3
  3
GouraudWithEdges
350
3B4
  3
Linepattern
350
3BE
  3
Realistic
350
3BA
  3
Thicken
350
3BD
  0
DICTIONARY
  5
482
102
{ACAD_REACTORS
330
3A8
102
}
330
3A8
100
AcDbDictionary
281
     1
  3
CTABLESTYLE
350
483
  3
DIMASSOC
350
4A9
  3
INDEXCTL
350
4A8
  3
SORTENTS
350
4A7
  0
DICTIONARY
  5
45E
102
{ACAD_REACTORS
330
3A8
102
}
330
3A8
100
AcDbDictionary
281
     1
  3
AcmStdDictionary
350
467
  3
AMDTSECTSYM_ARROWCOLOR
350
476
  0
DICTIONARY
  5
40B
102
{ACAD_REACTORS
330
3A8
102
}
330
3A8
100
AcDbDictionary
281
     1
  0
DICTIONARY
  5
4A0
102
{ACAD_REACTORS
330
3A8
102
}
330
3A8
100
AcDbDictionary
281
     1
  0
XRECORD
  5
4AA
102
{ACAD_REACTORS
330
3A8
102
}
330
3A8
100
AcDbXrecord
280
     1
  1
DWGPROPS COOKIE
  2

  3

  4

  6

  7

  8
Administrator
  9

300
=
301
=
302
=
303
=
304
=
305
=
306
=
307
=
308
=
309
=
 40
0.0016780555555556
 41
2452865.657906898
 42
2456174.47156919
  1

 90
        0
  0
LAYOUT
  5
3D5
102
{ACAD_XDICTIONARY
360
4B5
102
}
102
{ACAD_REACTORS
330
3CA
102
}
330
3CA
100
AcDbPlotSettings
  1

  2
\\CAD-SRV01\FX DocuColor 1250 PLW
  4

  6

 40
0.0
 41
0.0
 42
0.0
 43
0.0
 44
0.0
 45
0.0
 46
0.0
 47
0.0
 48
0.0
 49
0.0
140
0.0
141
0.0
142
1.0
143
1.0
 70
  1712
 72
     0
 73
     0
 74
     0
  7

 75
     0
147
1.0
148
0.0
149
0.0
100
AcDbLayout
  1
Model
 70
     1
 71
     0
 10
0.0
 20
0.0
 11
12.0
 21
9.0
 12
0.0
 22
0.0
 32
0.0
 14
0.0
 24
0.0
 34
0.0
 15
0.0
 25
0.0
 35
0.0
146
0.0
 13
0.0
 23
0.0
 33
0.0
 16
1.0
 26
0.0
 36
0.0
 17
0.0
 27
1.0
 37
0.0
 76
     0
330
3D2
331
3D6
  0
LAYOUT
  5
3D1
102
{ACAD_XDICTIONARY
360
4B3
102
}
102
{ACAD_REACTORS
330
3CA
102
}
330
3CA
100
AcDbPlotSettings
  1

  2
\\CAD-SRV01\FX DocuColor 1250 PLW
  4

  6

 40
0.0
 41
0.0
 42
0.0
 43
0.0
 44
0.0
 45
0.0
 46
0.0
 47
0.0
 48
0.0
 49
0.0
140
0.0
141
0.0
142
1.0
143
1.0
 70
   688
 72
     0
 73
     0
 74
     5
  7

 75
    16
147
1.0
148
0.0
149
0.0
100
AcDbLayout
  1
レイアウト1
 70
     1
 71
     1
 10
0.0
 20
0.0
 11
12.0
 21
9.0
 12
0.0
 22
0.0
 32
0.0
 14
1.000000000000000E+20
 24
1.000000000000000E+20
 34
1.000000000000000E+20
 15
-1.000000000000000E+20
 25
-1.000000000000000E+20
 35
-1.000000000000000E+20
146
0.0
 13
0.0
 23
0.0
 33
0.0
 16
1.0
 26
0.0
 36
0.0
 17
0.0
 27
1.0
 37
0.0
 76
     0
330
3CE
  0
MATERIAL
  5
3AE
102
{ACAD_XDICTIONARY
360
4AD
102
}
102
{ACAD_REACTORS
330
3AC
102
}
330
3AC
100
AcDbMaterial
  1
ByBlock
  0
MATERIAL
  5
3AD
102
{ACAD_XDICTIONARY
360
4AB
102
}
102
{ACAD_REACTORS
330
3AC
102
}
330
3AC
100
AcDbMaterial
  1
ByLayer
  0
MATERIAL
  5
3AF
102
{ACAD_XDICTIONARY
360
4AF
102
}
102
{ACAD_REACTORS
330
3AC
102
}
330
3AC
100
AcDbMaterial
  1
Global
  0
MLINESTYLE
  5
3C8
102
{ACAD_REACTORS
330
3C7
102
}
330
3C7
100
AcDbMlineStyle
  2
STANDARD
 70
     0
  3

 62
   256
 51
90.0
 52
90.0
 71
     2
 49
0.5
 62
   256
  6
BYLAYER
 49
-0.5
 62
   256
  6
BYLAYER
  0
ACDBPLACEHOLDER
  5
3AB
102
{ACAD_REACTORS
330
3AA
102
}
330
3AA
  0
TABLESTYLE
  5
3CD
102
{ACAD_XDICTIONARY
360
4B1
102
}
102
{ACAD_REACTORS
330
3CC
102
}
330
3CC
100
AcDbTableStyle
  3
Standard
 70
     0
 71
     0
 40
0.06
 41
0.06
280
     0
281
     0
  7
STANDARD
140
0.18
170
     2
 62
     0
 63
     7
283
     0
274
    -2
284
     1
 64
     0
275
    -2
285
     1
 65
     0
276
    -2
286
     1
 66
     0
277
    -2
287
     1
 67
     0
278
    -2
288
     1
 68
     0
279
    -2
289
     1
 69
     0
  7
STANDARD
140
0.25
170
     5
 62
     0
 63
     7
283
     0
274
    -2
284
     1
 64
     0
275
    -2
285
     1
 65
     0
276
    -2
286
     1
 66
     0
277
    -2
287
     1
 67
     0
278
    -2
288
     1
 68
     0
279
    -2
289
     1
 69
     0
  7
STANDARD
140
0.18
170
     5
 62
     0
 63
     7
283
     0
274
    -2
284
     1
 64
     0
275
    -2
285
     1
 65
     0
276
    -2
286
     1
 66
     0
277
    -2
287
     1
 67
     0
278
    -2
288
     1
 68
     0
279
    -2
289
     1
 69
     0
  0
VISUALSTYLE
  5
3B6
102
{ACAD_REACTORS
330
3B0
102
}
330
3B0
100
AcDbVisualStyle
  2
2dWireframe
 70
     4
 71
     0
 72
     2
 73
     0
 90
        0
 40
-0.6
 41
-30.0
 62
     5
 63
     7
 74
     1
 91
        4
 64
     7
 65
   257
 75
     1
175
     1
 42
1.0
 92
        0
 66
   257
 43
1.0
 76
     1
 77
     6
 78
     2
 67
     7
 79
     5
170
     0
171
     0
290
     0
174
     0
 93
        1
 44
0.0
173
     0
291
     0
 45
0.0
1001
ACAD
1000
AcDbSavedByObjectVersion
1070
     0
  0
VISUALSTYLE
  5
3B8
102
{ACAD_REACTORS
330
3B0
102
}
330
3B0
100
AcDbVisualStyle
  2
3D Hidden
 70
     6
 71
     1
 72
     2
 73
     2
 90
        0
 40
-0.6
 41
-30.0
 62
     5
 63
     7
 74
     2
 91
        2
 64
     7
 65
   257
 75
     2
175
     1
 42
40.0
 92
        0
 66
   257
 43
1.0
 76
     1
 77
     6
 78
     2
 67
     7
 79
     3
170
     0
171
     0
290
     0
174
     0
 93
        1
 44
0.0
173
     0
291
     0
 45
0.0
1001
ACAD
1000
AcDbSavedByObjectVersion
1070
     0
  0
VISUALSTYLE
  5
3B7
102
{ACAD_REACTORS
330
3B0
102
}
330
3B0
100
AcDbVisualStyle
  2
3dWireframe
 70
     5
 71
     0
 72
     2
 73
     0
 90
        0
 40
-0.6
 41
-30.0
 62
     5
 63
     7
 74
     1
 91
        4
 64
     7
 65
   257
 75
     1
175
     1
 42
1.0
 92
        0
 66
   257
 43
1.0
 76
     1
 77
     6
 78
     2
 67
     7
 79
     5
170
     0
171
     0
290
     0
174
     0
 93
        1
 44
0.0
173
     0
291
     0
 45
0.0
1001
ACAD
1000
AcDbSavedByObjectVersion
1070
     0
  0
VISUALSTYLE
  5
3B5
102
{ACAD_REACTORS
330
3B0
102
}
330
3B0
100
AcDbVisualStyle
  2
Basic
 70
     7
 71
     1
 72
     0
 73
     1
 90
        0
 40
-0.6
 41
-30.0
 62
     5
 63
     7
 74
     0
 91
        4
 64
     7
 65
   257
 75
     1
175
     1
 42
1.0
 92
        8
 66
     7
 43
1.0
 76
     1
 77
     6
 78
     2
 67
     7
 79
     5
170
     0
171
     0
290
     0
174
     0
 93
        1
 44
0.0
173
     0
291
     1
 45
0.0
1001
ACAD
1000
AcDbSavedByObjectVersion
1070
     0
  0
VISUALSTYLE
  5
3BC
102
{ACAD_REACTORS
330
3B0
102
}
330
3B0
100
AcDbVisualStyle
  2
Brighten
 70
    12
 71
     2
 72
     2
 73
     0
 90
        0
 40
-0.6
 41
-30.0
 62
     5
 63
     7
 74
     1
 91
        4
 64
     7
 65
   257
 75
     1
175
     1
 42
1.0
 92
        8
 66
     7
 43
1.0
 76
     1
 77
     6
 78
     2
 67
     7
 79
     5
170
     0
171
     0
290
     0
174
     0
 93
        1
 44
50.0
173
     0
291
     1
 45
0.0
1001
ACAD
1000
AcDbSavedByObjectVersion
1070
     0
  0
VISUALSTYLE
  5
3C0
102
{ACAD_REACTORS
330
3B0
102
}
330
3B0
100
AcDbVisualStyle
  2
ColorChange
 70
    16
 71
     2
 72
     2
 73
     3
 90
        0
 40
-0.6
 41
-30.0
 62
     5
 63
     8
 74
     1
 91
        4
 64
     7
 65
   257
 75
     1
175
     1
 42
1.0
 92
        8
 66
     8
 43
1.0
 76
     1
 77
     6
 78
     2
 67
     7
 79
     5
170
     0
171
     0
290
     0
174
     0
 93
        1
 44
0.0
173
     0
291
     1
 45
0.0
1001
ACAD
1000
AcDbSavedByObjectVersion
1070
     0
  0
VISUALSTYLE
  5
3B9
102
{ACAD_REACTORS
330
3B0
102
}
330
3B0
100
AcDbVisualStyle
  2
Conceptual
 70
     9
 71
     3
 72
     2
 73
     0
 90
        0
 40
-0.6
 41
-30.0
 62
     5
 63
     7
 74
     2
 91
        2
 64
     7
 65
   257
 75
     1
175
     1
 42
40.0
 92
        8
 66
     7
 43
1.0
 76
     1
 77
     6
 78
     2
 67
     7
 79
     3
170
     0
171
     0
290
     0
174
     0
 93
        1
 44
0.0
173
     0
291
     0
 45
0.0
1001
ACAD
1000
AcDbSavedByObjectVersion
1070
     0
  0
VISUALSTYLE
  5
3BB
102
{ACAD_REACTORS
330
3B0
102
}
330
3B0
100
AcDbVisualStyle
  2
Dim
 70
    11
 71
     2
 72
     2
 73
     0
 90
        0
 40
-0.6
 41
-30.0
 62
     5
 63
     7
 74
     1
 91
        4
 64
     7
 65
   257
 75
     1
175
     1
 42
1.0
 92
        8
 66
     7
 43
1.0
 76
     1
 77
     6
 78
     2
 67
     7
 79
     5
170
     0
171
     0
290
     0
174
     0
 93
        1
 44
-50.0
173
     0
291
     1
 45
0.0
1001
ACAD
1000
AcDbSavedByObjectVersion
1070
     0
  0
VISUALSTYLE
  5
3BF
102
{ACAD_REACTORS
330
3B0
102
}
330
3B0
100
AcDbVisualStyle
  2
Facepattern
 70
    15
 71
     2
 72
     2
 73
     0
 90
        0
 40
-0.6
 41
-30.0
 62
     5
 63
     7
 74
     1
 91
        4
 64
     7
 65
   257
 75
     1
175
     1
 42
1.0
 92
        8
 66
     7
 43
1.0
 76
     1
 77
     6
 78
     2
 67
     7
 79
     5
170
     0
171
     0
290
     0
174
     0
 93
        1
 44
0.0
173
     0
291
     1
 45
0.0
1001
ACAD
1000
AcDbSavedByObjectVersion
1070
     0
  0
VISUALSTYLE
  5
3B1
102
{ACAD_REACTORS
330
3B0
102
}
330
3B0
100
AcDbVisualStyle
  2
Flat
 70
     0
 71
     2
 72
     1
 73
     1
 90
        2
 40
-0.6
 41
30.0
 62
     5
 63
     7
 74
     0
 91
        4
 64
     7
 65
   257
 75
     1
175
     1
 42
1.0
 92
        8
 66
     7
 43
1.0
 76
     1
 77
     6
 78
     2
 67
     7
 79
     5
170
     0
171
     0
290
     0
174
     0
 93
       13
 44
0.0
173
     0
291
     1
 45
0.0
1001
ACAD
1000
AcDbSavedByObjectVersion
1070
     0
  0
VISUALSTYLE
  5
3B2
102
{ACAD_REACTORS
330
3B0
102
}
330
3B0
100
AcDbVisualStyle
  2
FlatWithEdges
 70
     1
 71
     2
 72
     1
 73
     1
 90
        2
 40
-0.6
 41
30.0
 62
     5
 63
     7
 74
     1
 91
        4
 64
     7
 65
   257
 75
     1
175
     1
 42
1.0
 92
        0
 66
   257
 43
1.0
 76
     1
 77
     6
 78
     2
 67
     7
 79
     5
170
     0
171
     0
290
     0
174
     0
 93
       13
 44
0.0
173
     0
291
     1
 45
0.0
1001
ACAD
1000
AcDbSavedByObjectVersion
1070
     0
  0
VISUALSTYLE
  5
3B3
102
{ACAD_REACTORS
330
3B0
102
}
330
3B0
100
AcDbVisualStyle
  2
Gouraud
 70
     2
 71
     2
 72
     2
 73
     1
 90
        2
 40
-0.6
 41
30.0
 62
     5
 63
     7
 74
     0
 91
        4
 64
     7
 65
   257
 75
     1
175
     1
 42
1.0
 92
        0
 66
     7
 43
1.0
 76
     1
 77
     6
 78
     2
 67
     7
 79
     5
170
     0
171
     0
290
     0
174
     0
 93
       13
 44
0.0
173
     0
291
     1
 45
0.0
1001
ACAD
1000
AcDbSavedByObjectVersion
1070
     0
  0
VISUALSTYLE
  5
3B4
102
{ACAD_REACTORS
330
3B0
102
}
330
3B0
100
AcDbVisualStyle
  2
GouraudWithEdges
 70
     3
 71
     2
 72
     2
 73
     1
 90
        2
 40
-0.6
 41
30.0
 62
     5
 63
     7
 74
     1
 91
        4
 64
     7
 65
   257
 75
     1
175
     1
 42
1.0
 92
        0
 66
   257
 43
1.0
 76
     1
 77
     6
 78
     2
 67
     7
 79
     5
170
     0
171
     0
290
     0
174
     0
 93
       13
 44
0.0
173
     0
291
     1
 45
0.0
1001
ACAD
1000
AcDbSavedByObjectVersion
1070
     0
  0
VISUALSTYLE
  5
3BE
102
{ACAD_REACTORS
330
3B0
102
}
330
3B0
100
AcDbVisualStyle
  2
Linepattern
 70
    14
 71
     2
 72
     2
 73
     0
 90
        0
 40
-0.6
 41
-30.0
 62
     5
 63
     7
 74
     1
 91
        4
 64
     7
 65
   257
 75
     7
175
     7
 42
1.0
 92
        8
 66
     7
 43
1.0
 76
     1
 77
     6
 78
     2
 67
     7
 79
     5
170
     0
171
     0
290
     0
174
     0
 93
        1
 44
0.0
173
     0
291
     1
 45
0.0
1001
ACAD
1000
AcDbSavedByObjectVersion
1070
     0
  0
VISUALSTYLE
  5
3BA
102
{ACAD_REACTORS
330
3B0
102
}
330
3B0
100
AcDbVisualStyle
  2
Realistic
 70
     8
 71
     2
 72
     2
 73
     0
 90
        0
 40
-0.6
 41
-30.0
 62
     5
 63
     7
 74
     1
 91
        0
 64
     7
 65
   257
 75
     1
175
     1
 42
1.0
 92
        8
 66
     8
 43
1.0
 76
     1
 77
     6
 78
     2
 67
     7
 79
     5
170
     0
171
     0
290
     0
174
     0
 93
       13
 44
0.0
173
     0
291
     0
 45
0.0
1001
ACAD
1000
AcDbSavedByObjectVersion
1070
     0
  0
VISUALSTYLE
  5
3BD
102
{ACAD_REACTORS
330
3B0
102
}
330
3B0
100
AcDbVisualStyle
  2
Thicken
 70
    13
 71
     2
 72
     2
 73
     0
 90
        0
 40
-0.6
 41
-30.0
 62
     5
 63
     7
 74
     1
 91
        4
 64
     7
 65
   257
 75
     1
175
     1
 42
1.0
 92
       12
 66
     7
 43
1.0
 76
     1
 77
     6
 78
     2
 67
     7
 79
     5
170
     0
171
     0
290
     0
174
     0
 93
        1
 44
0.0
173
     0
291
     1
 45
0.0
1001
ACAD
1000
AcDbSavedByObjectVersion
1070
     0
  0
DICTIONARYVAR
  5
483
102
{ACAD_REACTORS
330
482
102
}
330
482
100
DictionaryVariables
280
     0
  1
STANDARD
  0
DICTIONARYVAR
  5
4A9
102
{ACAD_REACTORS
330
482
102
}
330
482
100
DictionaryVariables
280
     0
  1
1
  0
DICTIONARYVAR
  5
4A8
102
{ACAD_REACTORS
330
482
102
}
330
482
100
DictionaryVariables
280
     0
  1
0
  0
DICTIONARYVAR
  5
4A7
102
{ACAD_REACTORS
330
482
102
}
330
482
100
DictionaryVariables
280
     0
  1
127
  0
DICTIONARY
  5
467
102
{ACAD_REACTORS
330
45E
102
}
330
45E
100
AcDbDictionary
281
     1
  0
XRECORD
  5
476
102
{ACAD_REACTORS
330
45E
102
}
330
45E
100
AcDbXrecord
280
     1
 90
-1023410169
  0
DICTIONARY
  5
4B5
330
3D5
100
AcDbDictionary
280
     1
281
     1
  3
ACAD_XREC_ROUNDTRIP
360
4B6
  0
DICTIONARY
  5
4B3
330
3D1
100
AcDbDictionary
280
     1
281
     1
  3
ACAD_XREC_ROUNDTRIP
360
4B4
  0
DICTIONARY
  5
4AD
330
3AE
100
AcDbDictionary
280
     1
281
     1
  3
ACAD_XREC_ROUNDTRIP
360
4AE
  0
DICTIONARY
  5
4AB
330
3AD
100
AcDbDictionary
280
     1
281
     1
  3
ACAD_XREC_ROUNDTRIP
360
4AC
  0
DICTIONARY
  5
4AF
330
3AF
100
AcDbDictionary
280
     1
281
     1
  3
ACAD_XREC_ROUNDTRIP
360
4B0
  0
DICTIONARY
  5
4B1
330
3CD
100
AcDbDictionary
280
     1
281
     1
  3
ACAD_XREC_ROUNDTRIP
360
4B2
  0
XRECORD
  5
4B6
102
{ACAD_REACTORS
330
4B5
102
}
330
4B5
100
AcDbXrecord
280
     1
102
SHADEPLOT
 70
     0
102
SHADEPLOTRESLEVEL
 70
     2
102
SHADEPLOTCUSTOMDPI
 70
   300
  0
XRECORD
  5
4B4
102
{ACAD_REACTORS
330
4B3
102
}
330
4B3
100
AcDbXrecord
280
     1
102
SHADEPLOT
 70
     0
102
SHADEPLOTRESLEVEL
 70
     2
102
SHADEPLOTCUSTOMDPI
 70
   300
  0
XRECORD
  5
4AE
102
{ACAD_REACTORS
330
4AD
102
}
330
4AD
100
AcDbXrecord
280
     1
102
MATERIAL
148
0.0
149
0.0
149
0.0
 93
        0
 94
       63
282
     0
 72
     1
 77
     1
171
     1
175
     1
179
     1
273
     0
  0
XRECORD
  5
4AC
102
{ACAD_REACTORS
330
4AB
102
}
330
4AB
100
AcDbXrecord
280
     1
102
MATERIAL
148
0.0
149
0.0
149
0.0
 93
        0
 94
       63
282
     0
 72
     1
 77
     1
171
     1
175
     1
179
     1
273
     0
  0
XRECORD
  5
4B0
102
{ACAD_REACTORS
330
4AF
102
}
330
4AF
100
AcDbXrecord
280
     1
102
MATERIAL
148
0.0
149
0.0
149
0.0
 93
        0
 94
       63
282
     0
 72
     1
 77
     1
171
     1
175
     1
179
     1
273
     0
  0
XRECORD
  5
4B2
102
{ACAD_REACTORS
330
4B1
102
}
330
4B1
100
AcDbXrecord
280
     1
102
ACAD_ROUNDTRIP_PRE2007_TABLESTYLE
 90
      512
 91
        0
  1

 92
      512
 93
        0
  2

 94
      512
 95
        0
  3

  0
ENDSEC
  0
EOF
