  0
SECTION
  2
HEADER
  9
$ACADVER
  1
AC1015
  9
$ACADMAINTVER
 70
    20
  9
$DWGCODEPAGE
  3
ANSI_932
  9
$INSBASE
 10
0.0
 20
0.0
 30
0.0
  9
$EXTMIN
 10
464.9953103275418
 20
551.098737328455
 30
-0.0000000349181948
  9
$EXTMAX
 10
885.0379760002901
 20
848.1369260797965
 30
0.0000000814935746
  9
$LIMMIN
 10
465.0219099999999
 20
551.1169399999999
  9
$LIMMAX
 10
885.02191
 20
848.11694
  9
$ORTHOMODE
 70
     0
  9
$REGENMODE
 70
     1
  9
$FILLMODE
 70
     1
  9
$QTEXTMODE
 70
     0
  9
$MIRRTEXT
 70
     0
  9
$LTSCALE
 40
1.0
  9
$ATTMODE
 70
     1
  9
$TEXTSIZE
 40
0.2
  9
$TRACEWID
 40
0.05
  9
$TEXTSTYLE
  7
STANDARD
  9
$CLAYER
  8
0
  9
$CELTYPE
  6
CONTINUOUS
  9
$CECOLOR
 62
   256
  9
$CELTSCALE
 40
1.0
  9
$DISPSILH
 70
     0
  9
$DIMSCALE
 40
1.0
  9
$DIMASZ
 40
1.0
  9
$DIMEXO
 40
2.54
  9
$DIMDLI
 40
0.38
  9
$DIMRND
 40
0.0
  9
$DIMDLE
 40
0.0
  9
$DIMEXE
 40
2.54
  9
$DIMTP
 40
0.0
  9
$DIMTM
 40
0.0
  9
$DIMTXT
 40
3.2
  9
$DIMCEN
 40
0.09
  9
$DIMTSZ
 40
0.0
  9
$DIMTOL
 70
     0
  9
$DIMLIM
 70
     0
  9
$DIMTIH
 70
     0
  9
$DIMTOH
 70
     0
  9
$DIMSE1
 70
     0
  9
$DIMSE2
 70
     0
  9
$DIMTAD
 70
     1
  9
$DIMZIN
 70
     0
  9
$DIMBLK
  1

  9
$DIMASO
 70
     1
  9
$DIMSHO
 70
     0
  9
$DIMPOST
  1

  9
$DIMAPOST
  1

  9
$DIMALT
 70
     0
  9
$DIMALTD
 70
     2
  9
$DIMALTF
 40
25.4
  9
$DIMLFAC
 40
1.0
  9
$DIMTOFL
 70
     0
  9
$DIMTVP
 40
1.0
  9
$DIMTIX
 70
     0
  9
$DIMSOXD
 70
     0
  9
$DIMSAH
 70
     1
  9
$DIMBLK1
  1

  9
$DIMBLK2
  1

  9
$DIMSTYLE
  2
Standard
  9
$DIMCLRD
 70
     0
  9
$DIMCLRE
 70
     0
  9
$DIMCLRT
 70
     0
  9
$DIMTFAC
 40
1.0
  9
$DIMGAP
 40
1.6
  9
$DIMJUST
 70
     0
  9
$DIMSD1
 70
     0
  9
$DIMSD2
 70
     0
  9
$DIMTOLJ
 70
     1
  9
$DIMTZIN
 70
     0
  9
$DIMALTZ
 70
     0
  9
$DIMALTTZ
 70
     0
  9
$DIMUPT
 70
     0
  9
$DIMDEC
 70
     4
  9
$DIMTDEC
 70
     4
  9
$DIMALTU
 70
     2
  9
$DIMALTTD
 70
     2
  9
$DIMTXSTY
  7
STANDARD
  9
$DIMAUNIT
 70
     0
  9
$DIMADEC
 70
     0
  9
$DIMALTRND
 40
0.0
  9
$DIMAZIN
 70
     0
  9
$DIMDSEP
 70
    46
  9
$DIMATFIT
 70
     3
  9
$DIMFRAC
 70
     0
  9
$DIMLDRBLK
  1

  9
$DIMLUNIT
 70
     2
  9
$DIMLWD
 70
    -2
  9
$DIMLWE
 70
    -2
  9
$DIMTMOVE
 70
     0
  9
$LUNITS
 70
     2
  9
$LUPREC
 70
     4
  9
$SKETCHINC
 40
0.1
  9
$FILLETRAD
 40
0.0
  9
$AUNITS
 70
     0
  9
$AUPREC
 70
     0
  9
$MENU
  1
.
  9
$ELEVATION
 40
0.0
  9
$PELEVATION
 40
0.0
  9
$THICKNESS
 40
0.0
  9
$LIMCHECK
 70
     0
  9
$CHAMFERA
 40
0.0
  9
$CHAMFERB
 40
0.0
  9
$CHAMFERC
 40
0.0
  9
$CHAMFERD
 40
0.0
  9
$SKPOLY
 70
     0
  9
$TDCREATE
 40
2454475.546722176
  9
$TDUCREATE
 40
2454475.171722176
  9
$TDUPDATE
 40
2454988.758327002
  9
$TDUUPDATE
 40
2454988.383327002
  9
$TDINDWG
 40
0.0112208912
  9
$TDUSRTIMER
 40
0.0112208912
  9
$USRTIMER
 70
     1
  9
$ANGBASE
 50
0.0
  9
$ANGDIR
 70
     0
  9
$PDMODE
 70
     0
  9
$PDSIZE
 40
0.0
  9
$PLINEWID
 40
0.0
  9
$SPLFRAME
 70
     0
  9
$SPLINETYPE
 70
     6
  9
$SPLINESEGS
 70
     8
  9
$HANDSEED
  5
38A
  9
$SURFTAB1
 70
     6
  9
$SURFTAB2
 70
     6
  9
$SURFTYPE
 70
     6
  9
$SURFU
 70
     6
  9
$SURFV
 70
     6
  9
$UCSBASE
  2

  9
$UCSNAME
  2

  9
$UCSORG
 10
0.0
 20
0.0
 30
0.0
  9
$UCSXDIR
 10
1.0
 20
0.0
 30
0.0
  9
$UCSYDIR
 10
0.0
 20
1.0
 30
0.0
  9
$UCSORTHOREF
  2

  9
$UCSORTHOVIEW
 70
     0
  9
$UCSORGTOP
 10
0.0
 20
0.0
 30
0.0
  9
$UCSORGBOTTOM
 10
0.0
 20
0.0
 30
0.0
  9
$UCSORGLEFT
 10
0.0
 20
0.0
 30
0.0
  9
$UCSORGRIGHT
 10
0.0
 20
0.0
 30
0.0
  9
$UCSORGFRONT
 10
0.0
 20
0.0
 30
0.0
  9
$UCSORGBACK
 10
0.0
 20
0.0
 30
0.0
  9
$PUCSBASE
  2

  9
$PUCSNAME
  2

  9
$PUCSORG
 10
0.0
 20
0.0
 30
0.0
  9
$PUCSXDIR
 10
1.0
 20
0.0
 30
0.0
  9
$PUCSYDIR
 10
0.0
 20
1.0
 30
0.0
  9
$PUCSORTHOREF
  2

  9
$PUCSORTHOVIEW
 70
     0
  9
$PUCSORGTOP
 10
0.0
 20
0.0
 30
0.0
  9
$PUCSORGBOTTOM
 10
0.0
 20
0.0
 30
0.0
  9
$PUCSORGLEFT
 10
0.0
 20
0.0
 30
0.0
  9
$PUCSORGRIGHT
 10
0.0
 20
0.0
 30
0.0
  9
$PUCSORGFRONT
 10
0.0
 20
0.0
 30
0.0
  9
$PUCSORGBACK
 10
0.0
 20
0.0
 30
0.0
  9
$USERI1
 70
     0
  9
$USERI2
 70
     0
  9
$USERI3
 70
     0
  9
$USERI4
 70
     0
  9
$USERI5
 70
     0
  9
$USERR1
 40
0.0
  9
$USERR2
 40
0.0
  9
$USERR3
 40
0.0
  9
$USERR4
 40
0.0
  9
$USERR5
 40
0.0
  9
$WORLDVIEW
 70
     1
  9
$SHADEDGE
 70
     3
  9
$SHADEDIF
 70
    70
  9
$TILEMODE
 70
     1
  9
$MAXACTVP
 70
    64
  9
$PINSBASE
 10
0.0
 20
0.0
 30
0.0
  9
$PLIMCHECK
 70
     0
  9
$PEXTMIN
 10
1.000000000000000E+20
 20
1.000000000000000E+20
 30
1.000000000000000E+20
  9
$PEXTMAX
 10
-1.000000000000000E+20
 20
-1.000000000000000E+20
 30
-1.000000000000000E+20
  9
$PLIMMIN
 10
465.0219099999999
 20
551.1169399999999
  9
$PLIMMAX
 10
885.02191
 20
848.11694
  9
$UNITMODE
 70
     0
  9
$VISRETAIN
 70
     1
  9
$PLINEGEN
 70
     0
  9
$PSLTSCALE
 70
     1
  9
$TREEDEPTH
 70
  3020
  9
$CMLSTYLE
  2
Standard
  9
$CMLJUST
 70
     0
  9
$CMLSCALE
 40
1.0
  9
$PROXYGRAPHICS
 70
     1
  9
$MEASUREMENT
 70
     0
  9
$CELWEIGHT
370
    -1
  9
$ENDCAPS
280
     0
  9
$JOINSTYLE
280
     0
  9
$LWDISPLAY
290
     0
  9
$INSUNITS
 70
     0
  9
$HYPERLINKBASE
  1

  9
$STYLESHEET
  1

  9
$XEDIT
290
     1
  9
$CEPSNTYPE
380
     0
  9
$PSTYLEMODE
290
     1
  9
$FINGERPRINTGUID
  2
{B244019F-34DA-4B29-8047-C911D4636AA1}
  9
$VERSIONGUID
  2
{18083AA5-50E2-4090-8581-4760AD7D009A}
  9
$EXTNAMES
290
     1
  9
$PSVPSCALE
 40
0.0
  9
$OLESTARTUP
290
     0
  0
ENDSEC
  0
SECTION
  2
CLASSES
  0
CLASS
  1
ACDBDICTIONARYWDFLT
  2
AcDbDictionaryWithDefault
  3
ObjectDBX Classes
 90
        0
280
     0
281
     0
  0
CLASS
  1
MATERIAL
  2
AcDbMaterial
  3
ObjectDBX Classes
 90
     1024
280
     0
281
     0
  0
CLASS
  1
VISUALSTYLE
  2
AcDbVisualStyle
  3
ObjectDBX Classes
 90
     4095
280
     0
281
     0
  0
CLASS
  1
TABLESTYLE
  2
AcDbTableStyle
  3
ObjectDBX Classes
 90
     4095
280
     0
281
     0
  0
CLASS
  1
AMGSETTINGSOBJ
  2
AmgSettingsObj
  3
"AcadM|Product Description: AutoCAD Mechanical|Company: Autodesk"
 90
        0
280
     0
281
     0
  0
CLASS
  1
ACME_DOCUMENT
  2
AcMeDbDoc
  3
AcMeServices
 90
        0
280
     0
281
     0
  0
CLASS
  1
ACMESCOPE
  2
AcMeScope
  3
AcMeServices
 90
        0
280
     0
281
     0
  0
CLASS
  1
ACMECOMMANDHISTORY
  2
AcMeCommandHistory
  3
AcMeServices
 90
        0
280
     0
281
     0
  0
CLASS
  1
ACIMSYSVARMAN
  2
AcImSysVarManager
  3
AcMeServices
 90
        0
280
     0
281
     0
  0
CLASS
  1
ACIMINTSYSVAR
  2
AcImIntSysVar
  3
AcMeServices
 90
        0
280
     0
281
     0
  0
CLASS
  1
ACMEDRAWINGMAN
  2
AcMeDrawingMan
  3
AcMeServices
 90
        0
280
     0
281
     0
  0
CLASS
  1
ACMEVIEW
  2
AcMeView
  3
AcMeServices
 90
        0
280
     0
281
     0
  0
CLASS
  1
ACDBENTITYCACHE
  2
AcMeEntityCache
  3
AcMeServices
 90
        0
280
     0
281
     0
  0
CLASS
  1
GSMANAGER
  2
AcMeGSManager
  3
AcMeServices
 90
        0
280
     0
281
     0
  0
CLASS
  1
AMDTINTERNALREACTOR
  2
AmdtInternalReactor
  3
AcMeServices
 90
        0
280
     0
281
     0
  0
CLASS
  1
ACMESTATEMGR
  2
AcMeStateMgr
  3
AcMeServices
 90
        0
280
     0
281
     0
  0
CLASS
  1
ACGREFMASTER
  2
AcGrefMaster
  3
AcAttribServices
 90
        0
280
     0
281
     0
  0
CLASS
  1
AM_DRAWING_MGR
  2
AcDmDwgMgr
  3
AcMechDwgViewMgmt
 90
        0
280
     0
281
     0
  0
CLASS
  1
AM_DWG_DOCUMENT
  2
AcDmDwgDocument
  3
AcMechDwgViewMgmt
 90
        0
280
     0
281
     0
  0
CLASS
  1
AM_DWG_SHEET
  2
AcDmSheet
  3
AcMechDwgViewMgmt
 90
        0
280
     0
281
     0
  0
CLASS
  1
AM_VIEWDIMPARMAP
  2
AcDmViewDimParMap
  3
AcMechDwgViewMgmt
 90
        0
280
     0
281
     0
  0
CLASS
  1
ACIMREALSYSVAR
  2
AcImRealSysVar
  3
AcMeServices
 90
        0
280
     0
281
     0
  0
CLASS
  1
AM_DWGMGR_NAME
  2
AcDmDwgMgrName
  3
AcMechDwgViewMgmt
 90
        0
280
     0
281
     0
  0
CLASS
  1
ACME_DATABASE
  2
AcMeDbDatabase
  3
AcMeServices
 90
        0
280
     0
281
     0
  0
CLASS
  1
ACRFINSADJUSTERMGR
  2
AcRfInsAdjusterMgr
  3
AcMeServices
 90
        0
280
     0
281
     0
  0
CLASS
  1
ACGREFACADMASTER
  2
AcGrefacadMaster
  3
AcGrefServices
 90
        0
280
     0
281
     0
  0
CLASS
  1
AMDTMENUSTATEMGR
  2
AmdtMenuStateMgr
  3
McadcomServices
 90
        0
280
     0
281
     0
  0
CLASS
  1
AMDTMCOMMENUSTATE
  2
AmdtMcomMenuState
  3
McadcomServices
 90
        0
280
     0
281
     0
  0
CLASS
  1
AMIMASTER
  2
AmiMaster
  3
AmiServices
 90
        0
280
     0
281
     0
  0
CLASS
  1
MAPIAMMOUDLE
  2
MApiAmModule
  3
MApiAmServices
 90
        0
280
     0
281
     0
  0
CLASS
  1
ACIMSTRSYSVAR
  2
AcImStrSysVar
  3
AcMeServices
 90
        0
280
     0
281
     0
  0
CLASS
  1
AMDTADMENUSTATE
  2
AmdtAdMenuState
  3
DesignerServices
 90
        0
280
     0
281
     0
  0
CLASS
  1
ADAPPL
  2
AcAdAppl
  3
DesignerServices
 90
        0
280
     0
281
     0
  0
CLASS
  1
DEPMGR
  2
AcAdDepMgr
  3
DesignerServices
 90
        0
280
     0
281
     0
  0
CLASS
  1
PARAMMGR
  2
AcAdParamMgr
  3
DesignerServices
 90
        0
280
     0
281
     0
  0
CLASS
  1
PARAMSCOPE
  2
AcAdParamScope
  3
DesignerServices
 90
        0
280
     0
281
     0
  0
CLASS
  1
NAMEDAPPL
  2
AcAdNamedAppl
  3
DesignerServices
 90
        0
280
     0
281
     0
  0
CLASS
  1
AMDTDMMENUSTATE
  2
AmdtDmMenuState
  3
AcMechDwgViewMgmt
 90
        0
280
     0
281
     0
  0
CLASS
  1
AMDTAMMENUSTATE
  2
AmdtAmMenuState
  3
DesignerAssemblies
 90
        0
280
     0
281
     0
  0
CLASS
  1
ACAMPROJECT
  2
AcAmProject
  3
DesignerAssemblies
 90
        0
280
     0
281
     0
  0
CLASS
  1
ACAMGRCOMPDEF
  2
AcAmGrCompDef
  3
DesignerAssemblies
 90
        0
280
     0
281
     0
  0
CLASS
  1
ACCMCONTEXT
  2
AcCmContext
  3
DesignerAssemblies
 90
        0
280
     0
281
     0
  0
CLASS
  1
ACAMCOMPDEF
  2
AcAmCompDef
  3
DesignerAssemblies
 90
        0
280
     0
281
     0
  0
CLASS
  1
ACAMCOMPDEFMGR
  2
AcAmCompDefMgr
  3
DesignerAssemblies
 90
        0
280
     0
281
     0
  0
CLASS
  1
AMCONTEXTMGR
  2
AcAmContextMgr
  3
DesignerAssemblies
 90
        0
280
     0
281
     0
  0
CLASS
  1
ACAMCONTEXTMODELER
  2
AcAmContextModeler
  3
DesignerAssemblies
 90
        0
280
     0
281
     0
  0
CLASS
  1
ACMDATADICTIONARY
  2
AcmDataDictionary
  3
"AcmSymBB|Product Description: AutoCAD Mechanical|Company: Autodesk"
 90
        0
280
     0
281
     0
  0
CLASS
  1
CATALOGSTATE
  2
AcAmCatalogState
  3
DesignerAssemblies
 90
        0
280
     0
281
     0
  0
CLASS
  1
ACAMGRCOMPDEFSET
  2
AcAmGrCompDefSet
  3
DesignerAssemblies
 90
        0
280
     0
281
     0
  0
CLASS
  1
AMDTBROWSERDBTAB
  2
AmdtBrowserDbTab
  3
McadcomServices
 90
        0
280
     0
281
     0
  0
CLASS
  1
CBROWSERAPPOBJECT
  2
CBrowserAppObject
  3
McadcomServices
 90
        0
280
     0
281
     0
  0
CLASS
  1
DM_PLACEHOLDER
  2
AcDmSelsetPlaceholder
  3
AcMechDwgViewMgmt
 90
        0
280
     0
281
     0
  0
CLASS
  1
ACMSTANDARDANSI
  2
AcmStandardANSI
  3
"Amdt_StdImp|Product Description: AutoCAD Mechanical|Company: Autodesk"
 90
        0
280
     0
281
     0
  0
CLASS
  1
AMGOBJPROPCFG
  2
AmgObjPropCfg
  3
"AmgLay|Product Description: AutoCAD Mechanical|Company: Autodesk"
 90
        1
280
     0
281
     0
  0
CLASS
  1
ACMSURFSTANDARDANSI
  2
AcmSurfTextStdANSI
  3
"Amdt_StdImp|Product Description: AutoCAD Mechanical|Company: Autodesk"
 90
        0
280
     0
281
     0
  0
CLASS
  1
ACMFCFSTANDARDANSI
  2
AcmFCFStdANSI
  3
"Amdt_StdImp|Product Description: AutoCAD Mechanical|Company: Autodesk"
 90
        0
280
     0
281
     0
  0
CLASS
  1
ACMWELDSTANDARDANSI
  2
AcmWeldingStdANSI
  3
"Amdt_StdImp|Product Description: AutoCAD Mechanical|Company: Autodesk"
 90
        0
280
     0
281
     0
  0
CLASS
  1
ACMIDSTANDARDANSI
  2
AcmIdStdANSI
  3
"Amdt_StdImp|Product Description: AutoCAD Mechanical|Company: Autodesk"
 90
        0
280
     0
281
     0
  0
CLASS
  1
ACMDATUMSTANDARDANSI
  2
AcmDatumStdANSI
  3
"Amdt_StdImp|Product Description: AutoCAD Mechanical|Company: Autodesk"
 90
        0
280
     0
281
     0
  0
CLASS
  1
ACMBOMSTANDARDANSI
  2
AcmBOMStdANSI
  3
"Amdt_StdImp|Product Description: AutoCAD Mechanical|Company: Autodesk"
 90
        0
280
     0
281
     0
  0
CLASS
  1
ACMDETAILSTANDARDANSI
  2
AmdtDetailSymStdANSI
  3
"Amdt_StdImp|Product Description: AutoCAD Mechanical|Company: Autodesk"
 90
        0
280
     0
281
     0
  0
CLASS
  1
ACMSECTIONSTANDARDANSI
  2
AmdtSectionSymStdANSI
  3
"Amdt_StdImp|Product Description: AutoCAD Mechanical|Company: Autodesk"
 90
        0
280
     0
281
     0
  0
CLASS
  1
ACMCENTERLINESTANDARDANSI
  2
AmdtCenterLineStdANSI
  3
"Amdt_StdImp|Product Description: AutoCAD Mechanical|Company: Autodesk"
 90
        0
280
     0
281
     0
  0
CLASS
  1
ACMTHREADLINESTANDARDANSI
  2
AmdtThreadLineStdANSI
  3
"Amdt_StdImp|Product Description: AutoCAD Mechanical|Company: Autodesk"
 90
        0
280
     0
281
     0
  0
CLASS
  1
ACMNOTESTANDARDANSI
  2
AmdtNoteStdANSI
  3
"Amdt_StdImp|Product Description: AutoCAD Mechanical|Company: Autodesk"
 90
        0
280
     0
281
     0
  0
CLASS
  1
ACMTAPERSTANDARDANSI
  2
AcmTaperStdANSI
  3
"Amdt_StdImp|Product Description: AutoCAD Mechanical|Company: Autodesk"
 90
        0
280
     0
281
     0
  0
CLASS
  1
AMDTNOTETEMPLATEDB
  2
AmdtNoteTemplateDB
  3
AMDT_STDIMP_MODULE_NAME
 90
        0
280
     0
281
     0
  0
CLASS
  1
ACAMGLAYSTD
  2
AcAmgLayStd
  3
"AmgLay|Product Description: AutoCAD Mechanical|Company: Autodesk"
 90
        0
280
     0
281
     0
  0
CLASS
  1
ACAMGDIMSTD
  2
AcAmgDimStd
  3
"AmgDim|Product Description: AutoCAD Mechanical|Company: Autodesk"
 90
        0
280
     0
281
     0
  0
CLASS
  1
ACAMGHOLECHARTSTDANSI
  2
AcAmgHoleChartStdANSI
  3
ACMSYMBB_MODULE_NAME
 90
        0
280
     0
281
     0
  0
CLASS
  1
ACAMGTITLESTD
  2
AcAmgTitleStd
  3
"AmgTitle|Product Description: AutoCAD Mechanical|Company: Autodesk"
 90
        0
280
     0
281
     0
  0
CLASS
  1
ACAMGFILTERDAT
  2
AcAmgFilterDat
  3
"AcadM|Product Description: AutoCAD Mechanical|Company: Autodesk"
 90
    32768
280
     0
281
     0
  0
CLASS
  1
DICTIONARYVAR
  2
AcDbDictionaryVar
  3
ObjectDBX Classes
 90
        0
280
     0
281
     0
  0
CLASS
  1
CAMSSTRUCTBTNSTATE
  2
StructBtnState
  3
L"DesignerAssemblies"
 90
        0
280
     0
281
     0
  0
CLASS
  1
ACDBPLACEHOLDER
  2
AcDbPlaceHolder
  3
ObjectDBX Classes
 90
        0
280
     0
281
     0
  0
CLASS
  1
LAYOUT
  2
AcDbLayout
  3
ObjectDBX Classes
 90
        0
280
     0
281
     0
  0
ENDSEC
  0
SECTION
  2
TABLES
  0
TABLE
  2
VPORT
  5
8
330
0
100
AcDbSymbolTable
 70
     1
  0
VPORT
  5
41
330
8
100
AcDbSymbolTableRecord
100
AcDbViewportTableRecord
  2
*Active
 70
     0
 10
0.0
 20
0.0
 11
1.0
 21
1.0
 12
675.0166431639159
 22
699.6178317041258
 13
0.0
 23
0.0
 14
1.0
 24
1.0
 15
0.0
 25
0.0
 16
0.0
 26
0.0
 36
1.0
 17
0.0
 27
0.0
 37
0.0
 40
299.1523395609597
 41
1.579572446555819
 42
50.0
 43
0.0
 44
0.0
 50
0.0
 51
0.0
 71
     0
 72
   100
 73
     1
 74
     1
 75
     0
 76
     0
 77
     0
 78
     0
281
     0
 65
     0
110
0.0
120
0.0
130
0.0
111
1.0
121
0.0
131
0.0
112
0.0
122
1.0
132
0.0
 79
     0
146
0.0
  0
ENDTAB
  0
TABLE
  2
LTYPE
  5
5
330
0
100
AcDbSymbolTable
 70
    19
  0
LTYPE
  5
28
330
5
100
AcDbSymbolTableRecord
100
AcDbLinetypeTableRecord
  2
ByBlock
 70
     0
  3

 72
    65
 73
     0
 40
0.0
  0
LTYPE
  5
29
330
5
100
AcDbSymbolTableRecord
100
AcDbLinetypeTableRecord
  2
ByLayer
 70
     0
  3

 72
    65
 73
     0
 40
0.0
  0
LTYPE
  5
2A
330
5
100
AcDbSymbolTableRecord
100
AcDbLinetypeTableRecord
  2
CONTINUOUS
 70
     0
  3
Solid line
 72
    65
 73
     0
 40
0.0
  0
LTYPE
  5
3A
330
5
100
AcDbSymbolTableRecord
100
AcDbLinetypeTableRecord
  2
DASHED
 70
     0
  3
__ __ __ __ __ __ __ __ __ __ __ __ __ __ __
 72
    65
 73
     2
 40
3.5
 49
2.0
 74
     0
 49
-1.5
 74
     0
  0
LTYPE
  5
3B
330
5
100
AcDbSymbolTableRecord
100
AcDbLinetypeTableRecord
  2
CENTER
 70
     0
  3
____ _ ____ _ ____ _ ____ _ ____ _ ____ _ ____
 72
    65
 73
     4
 40
17.5
 49
13.0
 74
     0
 49
-1.5
 74
     0
 49
1.5
 74
     0
 49
-1.5
 74
     0
  0
LTYPE
  5
3C
330
5
100
AcDbSymbolTableRecord
100
AcDbLinetypeTableRecord
  2
PHANTOM
 70
     0
  3
_____ _ _ _____ _ _ _____ _ _ _____ _ _ ____  
 72
    65
 73
     6
 40
15.5
 49
8.0
 74
     0
 49
-1.5
 74
     0
 49
1.5
 74
     0
 49
-1.5
 74
     0
 49
1.5
 74
     0
 49
-1.5
 74
     0
  0
LTYPE
  5
3D
330
5
100
AcDbSymbolTableRecord
100
AcDbLinetypeTableRecord
  2
DOT
 70
     0
  3
. . . . . . . . . . . . . . . . . . . . . . . .
 72
    65
 73
     2
 40
0.25
 49
0.0
 74
     0
 49
-0.25
 74
     0
  0
LTYPE
  5
3E
330
5
100
AcDbSymbolTableRecord
100
AcDbLinetypeTableRecord
  2
HIDDEN
 70
     0
  3
__ __ __ __ __ __ __ __ __ __ __ __ __ __ __
 72
    65
 73
     2
 40
3.5
 49
2.0
 74
     0
 49
-1.5
 74
     0
  0
LTYPE
  5
289
330
5
100
AcDbSymbolTableRecord
100
AcDbLinetypeTableRecord
  2
PHANTOM2
 70
     0
  3
Phantom (.5x) ___ _ _ ___ _ _ ___ _ _ ___ _ _
 72
    65
 73
     6
 40
1.25
 49
0.625
 74
     0
 49
-0.125
 74
     0
 49
0.125
 74
     0
 49
-0.125
 74
     0
 49
0.125
 74
     0
 49
-0.125
 74
     0
  0
LTYPE
  5
2BE
330
5
100
AcDbSymbolTableRecord
100
AcDbLinetypeTableRecord
  2
AM_ISO02W050
 70
     0
  3
__ __ __ __ __ __ __ __ __ __ __ __ __ __ __
 72
    65
 73
     2
 40
7.5
 49
6.0
 74
     0
 49
-1.5
 74
     0
  0
LTYPE
  5
2BF
330
5
100
AcDbSymbolTableRecord
100
AcDbLinetypeTableRecord
  2
AM_ISO08W050
 70
     0
  3
____ . ____ . ____ . ____ . ____ . ____ . ____
 72
    65
 73
     4
 40
18.0
 49
12.0
 74
     0
 49
-1.5
 74
     0
 49
3.0
 74
     0
 49
-1.5
 74
     0
  0
LTYPE
  5
2C0
330
5
100
AcDbSymbolTableRecord
100
AcDbLinetypeTableRecord
  2
AM_ISO09W050
 70
     0
  3
_____ . . _____ . . _____ . . ____ .. ____
 72
    65
 73
     6
 40
22.5
 49
12.0
 74
     0
 49
-1.5
 74
     0
 49
3.0
 74
     0
 49
-1.5
 74
     0
 49
3.0
 74
     0
 49
-1.5
 74
     0
  0
LTYPE
  5
2C1
330
5
100
AcDbSymbolTableRecord
100
AcDbLinetypeTableRecord
  2
Amconstr
 70
     0
  3
_______________________
 72
    65
 73
     2
 40
9999.0
 49
9999.0
 74
     0
 49
0.0
 74
     0
  0
LTYPE
  5
2C2
330
5
100
AcDbSymbolTableRecord
100
AcDbLinetypeTableRecord
  2
AM_ISO08W050x2
 70
     0
  3
__ . __ . __ . __ . __ . __
 72
    65
 73
     4
 40
9.0
 49
6.0
 74
     0
 49
-0.75
 74
     0
 49
1.5
 74
     0
 49
-0.75
 74
     0
  0
LTYPE
  5
2C3
330
5
100
AcDbSymbolTableRecord
100
AcDbLinetypeTableRecord
  2
AM_ISO02W050x2
 70
     0
  3
 _ _ _ _ _ _ _ _ _ _ _ _
 72
    65
 73
     2
 40
3.75
 49
3.0
 74
     0
 49
-0.75
 74
     0
  0
LTYPE
  5
2C6
330
5
100
AcDbSymbolTableRecord
100
AcDbLinetypeTableRecord
  2
Amzigzag
 70
     0
  3
/\/-/\/-/\/-/\/-/\/-/\/
 72
    65
 73
     2
 40
11.0001
 49
0.0001
 74
     4
 75
   136
340
2C5
 46
0.04
 50
0.0
 44
0.0
 45
0.0
 49
-11.0
 74
     0
  0
LTYPE
  5
2C7
330
5
100
AcDbSymbolTableRecord
100
AcDbLinetypeTableRecord
  2
CENTER2
 70
     0
  3
Center (.5x) ___ _ ___ _ ___ _ ___ _ ___ _ ___
 72
    65
 73
     4
 40
1.125
 49
0.75
 74
     0
 49
-0.125
 74
     0
 49
0.125
 74
     0
 49
-0.125
 74
     0
  0
LTYPE
  5
2C8
330
5
100
AcDbSymbolTableRecord
100
AcDbLinetypeTableRecord
  2
HIDDEN2
 70
     0
  3
Hidden (.5x) _ _ _ _ _ _ _ _ _ _ _ _ _ _ _ _ _
 72
    65
 73
     2
 40
0.1875
 49
0.125
 74
     0
 49
-0.0625
 74
     0
  0
LTYPE
  5
2C9
330
5
100
AcDbSymbolTableRecord
100
AcDbLinetypeTableRecord
  2
Amzigzag2
 70
     0
  3
/\/-/\/-/\/-/\/-/\/-/\/
 72
    65
 73
     2
 40
0.4401
 49
0.0001
 74
     4
 75
   136
340
2C5
 46
0.0016
 50
0.0
 44
0.0
 45
0.0
 49
-0.4400000000000001
 74
     0
  0
LTYPE
  5
2D8
330
5
100
AcDbSymbolTableRecord
100
AcDbLinetypeTableRecord
  2
ACANSTGB
 70
     0
  3
__ . . __ . .
 72
    65
 73
     6
 40
0.35433070866
 49
0.15748031496
 74
     0
 49
-0.03937007874
 74
     0
 49
0.03937007874
 74
     0
 49
-0.03937007874
 74
     0
 49
0.03937007874
 74
     0
 49
-0.03937007874
 74
     0
  0
LTYPE
  5
2D9
330
5
100
AcDbSymbolTableRecord
100
AcDbLinetypeTableRecord
  2
ACANSTGL
 70
     0
  3
_ _ _ _ _
 72
    65
 73
     2
 40
0.11811023622
 49
0.07874015748
 74
     0
 49
-0.03937007874
 74
     0
  0
ENDTAB
  0
TABLE
  2
LAYER
  5
2
330
0
100
AcDbSymbolTable
 70
     1
  0
LAYER
  5
25
330
2
100
AcDbSymbolTableRecord
100
AcDbLayerTableRecord
  2
0
 70
     0
 62
     7
  6
CONTINUOUS
370
    -3
390
F
  0
ENDTAB
  0
TABLE
  2
STYLE
  5
3
330
0
100
AcDbSymbolTable
 70
     4
  0
STYLE
  5
26
330
3
100
AcDbSymbolTableRecord
100
AcDbTextStyleTableRecord
  2
STANDARD
 70
     0
 40
0.0
 41
1.0
 50
0.0
 71
     0
 42
0.2
  3
txt
  4
BIGFONT
  0
STYLE
  5
2C5
330
3
100
AcDbSymbolTableRecord
100
AcDbTextStyleTableRecord
  2

 70
     1
 40
0.0
 41
1.0
 50
0.0
 71
     0
 42
3.2
  3
genltshp.shx
  4

  0
STYLE
  5
2CA
330
3
100
AcDbSymbolTableRecord
100
AcDbTextStyleTableRecord
  2
ACANSTS
 70
     0
 40
1.0
 41
1.0
 50
0.0
 71
     0
 42
3.2
  3
romans.shx
  4
extfont.shx
  0
STYLE
  5
2D7
330
3
100
AcDbSymbolTableRecord
100
AcDbTextStyleTableRecord
  2
ACANSGDT
 70
     0
 40
0.0
 41
1.0
 50
0.0
 71
     0
 42
3.2
  3
amgdt.shx
  4

  0
ENDTAB
  0
TABLE
  2
VIEW
  5
6
330
0
100
AcDbSymbolTable
 70
     0
  0
ENDTAB
  0
TABLE
  2
UCS
  5
7
330
0
100
AcDbSymbolTable
 70
     0
  0
ENDTAB
  0
TABLE
  2
APPID
  5
9
330
0
100
AcDbSymbolTable
 70
     9
  0
APPID
  5
27
330
9
100
AcDbSymbolTableRecord
100
AcDbRegAppTableRecord
  2
ACAD
 70
     0
  0
APPID
  5
25C
330
9
100
AcDbSymbolTableRecord
100
AcDbRegAppTableRecord
  2
MCAD_NO_VIS
 70
     0
  0
APPID
  5
25D
330
9
100
AcDbSymbolTableRecord
100
AcDbRegAppTableRecord
  2
ACAD_TEMP_GRAPHIC
 70
     0
  0
APPID
  5
28B
330
9
100
AcDbSymbolTableRecord
100
AcDbRegAppTableRecord
  2
AD_DRAW
 70
     0
  0
APPID
  5
28E
330
9
100
AcDbSymbolTableRecord
100
AcDbRegAppTableRecord
  2
ACATTRIBSERVICES
 70
     0
  0
APPID
  5
2AF
330
9
100
AcDbSymbolTableRecord
100
AcDbRegAppTableRecord
  2
DESIGNERASSEMBLIES
 70
     0
  0
APPID
  5
2B5
330
9
100
AcDbSymbolTableRecord
100
AcDbRegAppTableRecord
  2
ACADM_DIM_EDIT
 70
     0
  0
APPID
  5
2B6
330
9
100
AcDbSymbolTableRecord
100
AcDbRegAppTableRecord
  2
AMDT_DM_ADJ
 70
     0
  0
APPID
  5
389
330
9
100
AcDbSymbolTableRecord
100
AcDbRegAppTableRecord
  2
ACAD_DSTYLE_DIMARC_LENGTH_SYMBOL
 70
     0
  0
ENDTAB
  0
TABLE
  2
DIMSTYLE
  5
A
330
0
100
AcDbSymbolTable
 70
     7
100
AcDbDimStyleTable
 71
     0
  0
DIMSTYLE
105
255
330
A
100
AcDbSymbolTableRecord
100
AcDbDimStyleTableRecord
  2
Standard
 70
     0
340
26
  0
DIMSTYLE
105
2E5
330
A
100
AcDbSymbolTableRecord
100
AcDbDimStyleTableRecord
  2
AM_ANSI
 70
     0
  4
mm
 41
0.1
 42
0.05
 43
0.5
 44
0.1
 47
0.1
 48
0.1
 78
     7
 79
     2
140
0.12
141
0.0
146
0.71
147
0.06
176
   256
177
   256
178
     2
274
     4
284
     7
340
26
371
    -1
372
    -1
1001
ACAD_DSTYLE_DIMARC_LENGTH_SYMBOL
1070
   379
1070
     1
  0
DIMSTYLE
105
2E6
330
A
100
AcDbSymbolTableRecord
100
AcDbDimStyleTableRecord
  2
AM_ANSI$3
 70
     0
  4
mm
 41
0.1
 42
0.05
 43
0.5
 44
0.1
 47
0.1
 48
0.1
 78
     7
 79
     2
140
0.12
141
0.0
146
0.71
147
0.06
176
   256
177
   256
178
     2
274
     4
284
     7
288
     1
289
     0
340
26
371
    -1
372
    -1
1001
ACAD_DSTYLE_DIMARC_LENGTH_SYMBOL
1070
   379
1070
     1
  0
DIMSTYLE
105
2E7
330
A
100
AcDbSymbolTableRecord
100
AcDbDimStyleTableRecord
  2
AM_ANSI$4
 70
     0
  4
mm
 41
0.1
 42
0.05
 43
0.5
 44
0.1
 47
0.1
 48
0.1
 78
     7
 79
     2
140
0.12
141
0.0
146
0.71
147
0.06
176
   256
177
   256
178
     2
274
     4
284
     7
288
     1
289
     0
340
26
371
    -1
372
    -1
1001
ACAD_DSTYLE_DIMARC_LENGTH_SYMBOL
1070
   379
1070
     1
  0
DIMSTYLE
105
2E8
330
A
100
AcDbSymbolTableRecord
100
AcDbDimStyleTableRecord
  2
AM_ANSI$7
 70
     0
  4
mm
 41
0.1
 42
0.05
 43
0.5
 44
0.1
 47
0.1
 48
0.1
 78
     7
 79
     2
140
0.24
141
0.0
146
0.71
147
0.06
176
   256
177
   256
178
     2
274
     4
284
     7
340
26
371
    -1
372
    -1
1001
ACAD_DSTYLE_DIMARC_LENGTH_SYMBOL
1070
   379
1070
     1
  0
DIMSTYLE
105
2E9
330
A
100
AcDbSymbolTableRecord
100
AcDbDimStyleTableRecord
  2
AM_ANSI$SF
 70
     0
  4
mm
 41
0.1
 42
0.05
 43
0.5
 44
0.1
 47
0.1
 48
0.1
 75
     1
 76
     1
 78
     7
 79
     2
140
0.12
141
0.0
146
0.71
147
0.06
176
   256
177
   256
178
     2
274
     4
284
     7
340
26
371
    -1
372
    -1
1001
ACAD_DSTYLE_DIMARC_LENGTH_SYMBOL
1070
   379
1070
     1
  0
DIMSTYLE
105
2EE
330
A
100
AcDbSymbolTableRecord
100
AcDbDimStyleTableRecord
  2
AM_ANSI$SH
 70
     0
  4
mm
 41
0.1
 42
0.05
 43
0.5
 44
0.1
 47
0.1
 48
0.1
 75
     1
 76
     1
 78
     7
 79
     2
140
0.12
141
0.0
146
0.71
147
0.06
173
     1
176
   256
177
   256
178
     2
274
     4
284
     7
340
26
343
2EA
371
    -1
372
    -1
1001
ACAD_DSTYLE_DIMARC_LENGTH_SYMBOL
1070
   379
1070
     1
  0
ENDTAB
  0
TABLE
  2
BLOCK_RECORD
  5
1
330
0
100
AcDbSymbolTable
 70
    28
  0
BLOCK_RECORD
  5
36
330
1
100
AcDbSymbolTableRecord
100
AcDbBlockTableRecord
  2
*Model_Space
340
39
  0
BLOCK_RECORD
  5
32
330
1
100
AcDbSymbolTableRecord
100
AcDbBlockTableRecord
  2
*Paper_Space
340
35
  0
BLOCK_RECORD
  5
42
330
1
100
AcDbSymbolTableRecord
100
AcDbBlockTableRecord
  2
KOZU0001
340
0
102
{BLKREFS
331
23B
102
}
  0
BLOCK_RECORD
  5
49
330
1
100
AcDbSymbolTableRecord
100
AcDbBlockTableRecord
  2
KOZU0002
340
0
102
{BLKREFS
331
23C
102
}
  0
BLOCK_RECORD
  5
50
330
1
100
AcDbSymbolTableRecord
100
AcDbBlockTableRecord
  2
KOZU0003
340
0
102
{BLKREFS
331
23D
102
}
  0
BLOCK_RECORD
  5
57
330
1
100
AcDbSymbolTableRecord
100
AcDbBlockTableRecord
  2
KOZU0004
340
0
102
{BLKREFS
331
23E
102
}
  0
BLOCK_RECORD
  5
5E
330
1
100
AcDbSymbolTableRecord
100
AcDbBlockTableRecord
  2
KOZU0005
340
0
102
{BLKREFS
331
23F
102
}
  0
BLOCK_RECORD
  5
65
330
1
100
AcDbSymbolTableRecord
100
AcDbBlockTableRecord
  2
KOZU0006
340
0
102
{BLKREFS
331
240
102
}
  0
BLOCK_RECORD
  5
6C
330
1
100
AcDbSymbolTableRecord
100
AcDbBlockTableRecord
  2
KOZU0007
340
0
102
{BLKREFS
331
241
102
}
  0
BLOCK_RECORD
  5
73
330
1
100
AcDbSymbolTableRecord
100
AcDbBlockTableRecord
  2
KOZU0008
340
0
102
{BLKREFS
331
242
102
}
  0
BLOCK_RECORD
  5
7A
330
1
100
AcDbSymbolTableRecord
100
AcDbBlockTableRecord
  2
KOZU0009
340
0
102
{BLKREFS
331
243
102
}
  0
BLOCK_RECORD
  5
81
330
1
100
AcDbSymbolTableRecord
100
AcDbBlockTableRecord
  2
KOZU0010
340
0
102
{BLKREFS
331
244
102
}
  0
BLOCK_RECORD
  5
88
330
1
100
AcDbSymbolTableRecord
100
AcDbBlockTableRecord
  2
KOZU0011
340
0
102
{BLKREFS
331
245
102
}
  0
BLOCK_RECORD
  5
8F
330
1
100
AcDbSymbolTableRecord
100
AcDbBlockTableRecord
  2
KOZU0012
340
0
102
{BLKREFS
331
246
102
}
  0
BLOCK_RECORD
  5
96
330
1
100
AcDbSymbolTableRecord
100
AcDbBlockTableRecord
  2
KOZU0013
340
0
102
{BLKREFS
331
247
102
}
  0
BLOCK_RECORD
  5
9D
330
1
100
AcDbSymbolTableRecord
100
AcDbBlockTableRecord
  2
KOZU0014
340
0
102
{BLKREFS
331
248
102
}
  0
BLOCK_RECORD
  5
A4
330
1
100
AcDbSymbolTableRecord
100
AcDbBlockTableRecord
  2
KOZU0015
340
0
102
{BLKREFS
331
249
102
}
  0
BLOCK_RECORD
  5
AB
330
1
100
AcDbSymbolTableRecord
100
AcDbBlockTableRecord
  2
KOZU0016
340
0
102
{BLKREFS
331
24A
102
}
  0
BLOCK_RECORD
  5
B2
330
1
100
AcDbSymbolTableRecord
100
AcDbBlockTableRecord
  2
KOZU0017
340
0
102
{BLKREFS
331
24B
102
}
  0
BLOCK_RECORD
  5
B9
330
1
100
AcDbSymbolTableRecord
100
AcDbBlockTableRecord
  2
KOZU0018
340
0
102
{BLKREFS
331
24C
102
}
  0
BLOCK_RECORD
  5
C0
330
1
100
AcDbSymbolTableRecord
100
AcDbBlockTableRecord
  2
KOZU0019
340
0
102
{BLKREFS
331
24D
102
}
  0
BLOCK_RECORD
  5
C7
330
1
100
AcDbSymbolTableRecord
100
AcDbBlockTableRecord
  2
KOZU0020
340
0
102
{BLKREFS
331
24E
102
}
  0
BLOCK_RECORD
  5
CE
330
1
100
AcDbSymbolTableRecord
100
AcDbBlockTableRecord
  2
KOZU0021
340
0
102
{BLKREFS
331
24F
102
}
  0
BLOCK_RECORD
  5
D5
330
1
100
AcDbSymbolTableRecord
100
AcDbBlockTableRecord
  2
KOZU0022
340
0
102
{BLKREFS
331
250
102
}
  0
BLOCK_RECORD
  5
DC
330
1
100
AcDbSymbolTableRecord
100
AcDbBlockTableRecord
  2
KOZU0023
340
0
102
{BLKREFS
331
251
102
}
  0
BLOCK_RECORD
  5
E3
330
1
100
AcDbSymbolTableRecord
100
AcDbBlockTableRecord
  2
KOZU0024
340
0
102
{BLKREFS
331
252
102
}
  0
BLOCK_RECORD
  5
EA
330
1
100
AcDbSymbolTableRecord
100
AcDbBlockTableRecord
  2
KOZU0025
340
0
102
{BLKREFS
331
253
102
}
  0
BLOCK_RECORD
  5
F1
330
1
100
AcDbSymbolTableRecord
100
AcDbBlockTableRecord
  2
KOZU0026
340
0
  0
BLOCK_RECORD
  5
2EA
330
1
100
AcDbSymbolTableRecord
100
AcDbBlockTableRecord
  2
GENAXEH
340
0
  0
ENDTAB
  0
ENDSEC
  0
SECTION
  2
BLOCKS
  0
BLOCK
  5
37
330
36
100
AcDbEntity
  8
0
100
AcDbBlockBegin
  2
*Model_Space
 70
     0
 10
0.0
 20
0.0
 30
0.0
  3
*Model_Space
  1

  0
ENDBLK
  5
38
330
36
100
AcDbEntity
  8
0
100
AcDbBlockEnd
  0
BLOCK
  5
33
330
32
100
AcDbEntity
 67
     1
  8
0
100
AcDbBlockBegin
  2
*Paper_Space
 70
     0
 10
0.0
 20
0.0
 30
0.0
  3
*Paper_Space
  1

  0
ENDBLK
  5
34
330
32
100
AcDbEntity
 67
     1
  8
0
100
AcDbBlockEnd
  0
BLOCK
  5
43
330
42
100
AcDbEntity
  8
0
100
AcDbBlockBegin
  2
KOZU0001
 70
     0
 10
0.0
 20
0.0
 30
0.0
  3
KOZU0001
  1

  0
POLYLINE
  5
44
330
42
100
AcDbEntity
  8
0
  6
Continuous
 62
     7
100
AcDb2dPolyline
 66
     1
 10
0.0
 20
0.0
 30
0.0
 70
     1
 40
0.4000000100000001
 41
0.4000000100000001
  0
VERTEX
  5
45
330
44
100
AcDbEntity
  8
0
  6
Continuous
 62
     7
100
AcDbVertex
100
AcDb2dVertex
 10
-0.2
 20
0.0
 30
0.0
 42
1.0
  0
VERTEX
  5
46
330
44
100
AcDbEntity
  8
0
  6
Continuous
 62
     7
100
AcDbVertex
100
AcDb2dVertex
 10
0.2
 20
0.0
 30
0.0
 42
1.0
  0
SEQEND
  5
47
330
44
100
AcDbEntity
  8
0
  6
Continuous
 62
     7
  0
ENDBLK
  5
48
330
42
100
AcDbEntity
  8
0
100
AcDbBlockEnd
  0
BLOCK
  5
4A
330
49
100
AcDbEntity
  8
0
100
AcDbBlockBegin
  2
KOZU0002
 70
     0
 10
0.0
 20
0.0
 30
0.0
  3
KOZU0002
  1

  0
POLYLINE
  5
4B
330
49
100
AcDbEntity
  8
0
  6
Continuous
 62
     7
100
AcDb2dPolyline
 66
     1
 10
0.0
 20
0.0
 30
0.0
 70
     1
 40
0.4000000100000001
 41
0.4000000100000001
  0
VERTEX
  5
4C
330
4B
100
AcDbEntity
  8
0
  6
Continuous
 62
     7
100
AcDbVertex
100
AcDb2dVertex
 10
-0.2
 20
0.0
 30
0.0
 42
1.0
  0
VERTEX
  5
4D
330
4B
100
AcDbEntity
  8
0
  6
Continuous
 62
     7
100
AcDbVertex
100
AcDb2dVertex
 10
0.2
 20
0.0
 30
0.0
 42
1.0
  0
SEQEND
  5
4E
330
4B
100
AcDbEntity
  8
0
  6
Continuous
 62
     7
  0
ENDBLK
  5
4F
330
49
100
AcDbEntity
  8
0
100
AcDbBlockEnd
  0
BLOCK
  5
51
330
50
100
AcDbEntity
  8
0
100
AcDbBlockBegin
  2
KOZU0003
 70
     0
 10
0.0
 20
0.0
 30
0.0
  3
KOZU0003
  1

  0
POLYLINE
  5
52
330
50
100
AcDbEntity
  8
0
  6
Continuous
 62
     7
100
AcDb2dPolyline
 66
     1
 10
0.0
 20
0.0
 30
0.0
 70
     1
 40
0.4000000100000001
 41
0.4000000100000001
  0
VERTEX
  5
53
330
52
100
AcDbEntity
  8
0
  6
Continuous
 62
     7
100
AcDbVertex
100
AcDb2dVertex
 10
-0.2
 20
0.0
 30
0.0
 42
1.0
  0
VERTEX
  5
54
330
52
100
AcDbEntity
  8
0
  6
Continuous
 62
     7
100
AcDbVertex
100
AcDb2dVertex
 10
0.2
 20
0.0
 30
0.0
 42
1.0
  0
SEQEND
  5
55
330
52
100
AcDbEntity
  8
0
  6
Continuous
 62
     7
  0
ENDBLK
  5
56
330
50
100
AcDbEntity
  8
0
100
AcDbBlockEnd
  0
BLOCK
  5
58
330
57
100
AcDbEntity
  8
0
100
AcDbBlockBegin
  2
KOZU0004
 70
     0
 10
0.0
 20
0.0
 30
0.0
  3
KOZU0004
  1

  0
POLYLINE
  5
59
330
57
100
AcDbEntity
  8
0
  6
Continuous
 62
     7
100
AcDb2dPolyline
 66
     1
 10
0.0
 20
0.0
 30
0.0
 70
     1
 40
0.4000000100000001
 41
0.4000000100000001
  0
VERTEX
  5
5A
330
59
100
AcDbEntity
  8
0
  6
Continuous
 62
     7
100
AcDbVertex
100
AcDb2dVertex
 10
-0.2
 20
0.0
 30
0.0
 42
1.0
  0
VERTEX
  5
5B
330
59
100
AcDbEntity
  8
0
  6
Continuous
 62
     7
100
AcDbVertex
100
AcDb2dVertex
 10
0.2
 20
0.0
 30
0.0
 42
1.0
  0
SEQEND
  5
5C
330
59
100
AcDbEntity
  8
0
  6
Continuous
 62
     7
  0
ENDBLK
  5
5D
330
57
100
AcDbEntity
  8
0
100
AcDbBlockEnd
  0
BLOCK
  5
5F
330
5E
100
AcDbEntity
  8
0
100
AcDbBlockBegin
  2
KOZU0005
 70
     0
 10
0.0
 20
0.0
 30
0.0
  3
KOZU0005
  1

  0
POLYLINE
  5
60
330
5E
100
AcDbEntity
  8
0
  6
Continuous
 62
     7
100
AcDb2dPolyline
 66
     1
 10
0.0
 20
0.0
 30
0.0
 70
     1
 40
0.4000000100000001
 41
0.4000000100000001
  0
VERTEX
  5
61
330
60
100
AcDbEntity
  8
0
  6
Continuous
 62
     7
100
AcDbVertex
100
AcDb2dVertex
 10
-0.2
 20
0.0
 30
0.0
 42
1.0
  0
VERTEX
  5
62
330
60
100
AcDbEntity
  8
0
  6
Continuous
 62
     7
100
AcDbVertex
100
AcDb2dVertex
 10
0.2
 20
0.0
 30
0.0
 42
1.0
  0
SEQEND
  5
63
330
60
100
AcDbEntity
  8
0
  6
Continuous
 62
     7
  0
ENDBLK
  5
64
330
5E
100
AcDbEntity
  8
0
100
AcDbBlockEnd
  0
BLOCK
  5
66
330
65
100
AcDbEntity
  8
0
100
AcDbBlockBegin
  2
KOZU0006
 70
     0
 10
0.0
 20
0.0
 30
0.0
  3
KOZU0006
  1

  0
POLYLINE
  5
67
330
65
100
AcDbEntity
  8
0
  6
Continuous
 62
     7
100
AcDb2dPolyline
 66
     1
 10
0.0
 20
0.0
 30
0.0
 70
     1
 40
0.4000000100000001
 41
0.4000000100000001
  0
VERTEX
  5
68
330
67
100
AcDbEntity
  8
0
  6
Continuous
 62
     7
100
AcDbVertex
100
AcDb2dVertex
 10
-0.2
 20
0.0
 30
0.0
 42
1.0
  0
VERTEX
  5
69
330
67
100
AcDbEntity
  8
0
  6
Continuous
 62
     7
100
AcDbVertex
100
AcDb2dVertex
 10
0.2
 20
0.0
 30
0.0
 42
1.0
  0
SEQEND
  5
6A
330
67
100
AcDbEntity
  8
0
  6
Continuous
 62
     7
  0
ENDBLK
  5
6B
330
65
100
AcDbEntity
  8
0
100
AcDbBlockEnd
  0
BLOCK
  5
6D
330
6C
100
AcDbEntity
  8
0
100
AcDbBlockBegin
  2
KOZU0007
 70
     0
 10
0.0
 20
0.0
 30
0.0
  3
KOZU0007
  1

  0
POLYLINE
  5
6E
330
6C
100
AcDbEntity
  8
0
  6
Continuous
 62
     7
100
AcDb2dPolyline
 66
     1
 10
0.0
 20
0.0
 30
0.0
 70
     1
 40
0.4000000100000001
 41
0.4000000100000001
  0
VERTEX
  5
6F
330
6E
100
AcDbEntity
  8
0
  6
Continuous
 62
     7
100
AcDbVertex
100
AcDb2dVertex
 10
-0.2
 20
0.0
 30
0.0
 42
1.0
  0
VERTEX
  5
70
330
6E
100
AcDbEntity
  8
0
  6
Continuous
 62
     7
100
AcDbVertex
100
AcDb2dVertex
 10
0.2
 20
0.0
 30
0.0
 42
1.0
  0
SEQEND
  5
71
330
6E
100
AcDbEntity
  8
0
  6
Continuous
 62
     7
  0
ENDBLK
  5
72
330
6C
100
AcDbEntity
  8
0
100
AcDbBlockEnd
  0
BLOCK
  5
74
330
73
100
AcDbEntity
  8
0
100
AcDbBlockBegin
  2
KOZU0008
 70
     0
 10
0.0
 20
0.0
 30
0.0
  3
KOZU0008
  1

  0
POLYLINE
  5
75
330
73
100
AcDbEntity
  8
0
  6
Continuous
 62
     7
100
AcDb2dPolyline
 66
     1
 10
0.0
 20
0.0
 30
0.0
 70
     1
 40
0.4000000100000001
 41
0.4000000100000001
  0
VERTEX
  5
76
330
75
100
AcDbEntity
  8
0
  6
Continuous
 62
     7
100
AcDbVertex
100
AcDb2dVertex
 10
-0.2
 20
0.0
 30
0.0
 42
1.0
  0
VERTEX
  5
77
330
75
100
AcDbEntity
  8
0
  6
Continuous
 62
     7
100
AcDbVertex
100
AcDb2dVertex
 10
0.2
 20
0.0
 30
0.0
 42
1.0
  0
SEQEND
  5
78
330
75
100
AcDbEntity
  8
0
  6
Continuous
 62
     7
  0
ENDBLK
  5
79
330
73
100
AcDbEntity
  8
0
100
AcDbBlockEnd
  0
BLOCK
  5
7B
330
7A
100
AcDbEntity
  8
0
100
AcDbBlockBegin
  2
KOZU0009
 70
     0
 10
0.0
 20
0.0
 30
0.0
  3
KOZU0009
  1

  0
POLYLINE
  5
7C
330
7A
100
AcDbEntity
  8
0
  6
Continuous
 62
     7
100
AcDb2dPolyline
 66
     1
 10
0.0
 20
0.0
 30
0.0
 70
     1
 40
0.4000000100000001
 41
0.4000000100000001
  0
VERTEX
  5
7D
330
7C
100
AcDbEntity
  8
0
  6
Continuous
 62
     7
100
AcDbVertex
100
AcDb2dVertex
 10
-0.2
 20
0.0
 30
0.0
 42
1.0
  0
VERTEX
  5
7E
330
7C
100
AcDbEntity
  8
0
  6
Continuous
 62
     7
100
AcDbVertex
100
AcDb2dVertex
 10
0.2
 20
0.0
 30
0.0
 42
1.0
  0
SEQEND
  5
7F
330
7C
100
AcDbEntity
  8
0
  6
Continuous
 62
     7
  0
ENDBLK
  5
80
330
7A
100
AcDbEntity
  8
0
100
AcDbBlockEnd
  0
BLOCK
  5
82
330
81
100
AcDbEntity
  8
0
100
AcDbBlockBegin
  2
KOZU0010
 70
     0
 10
0.0
 20
0.0
 30
0.0
  3
KOZU0010
  1

  0
POLYLINE
  5
83
330
81
100
AcDbEntity
  8
0
  6
Continuous
 62
     7
100
AcDb2dPolyline
 66
     1
 10
0.0
 20
0.0
 30
0.0
 70
     1
 40
0.4000000100000001
 41
0.4000000100000001
  0
VERTEX
  5
84
330
83
100
AcDbEntity
  8
0
  6
Continuous
 62
     7
100
AcDbVertex
100
AcDb2dVertex
 10
-0.2
 20
0.0
 30
0.0
 42
1.0
  0
VERTEX
  5
85
330
83
100
AcDbEntity
  8
0
  6
Continuous
 62
     7
100
AcDbVertex
100
AcDb2dVertex
 10
0.2
 20
0.0
 30
0.0
 42
1.0
  0
SEQEND
  5
86
330
83
100
AcDbEntity
  8
0
  6
Continuous
 62
     7
  0
ENDBLK
  5
87
330
81
100
AcDbEntity
  8
0
100
AcDbBlockEnd
  0
BLOCK
  5
89
330
88
100
AcDbEntity
  8
0
100
AcDbBlockBegin
  2
KOZU0011
 70
     0
 10
0.0
 20
0.0
 30
0.0
  3
KOZU0011
  1

  0
POLYLINE
  5
8A
330
88
100
AcDbEntity
  8
0
  6
Continuous
 62
     7
100
AcDb2dPolyline
 66
     1
 10
0.0
 20
0.0
 30
0.0
 70
     1
 40
0.4000000100000001
 41
0.4000000100000001
  0
VERTEX
  5
8B
330
8A
100
AcDbEntity
  8
0
  6
Continuous
 62
     7
100
AcDbVertex
100
AcDb2dVertex
 10
-0.2
 20
0.0
 30
0.0
 42
1.0
  0
VERTEX
  5
8C
330
8A
100
AcDbEntity
  8
0
  6
Continuous
 62
     7
100
AcDbVertex
100
AcDb2dVertex
 10
0.2
 20
0.0
 30
0.0
 42
1.0
  0
SEQEND
  5
8D
330
8A
100
AcDbEntity
  8
0
  6
Continuous
 62
     7
  0
ENDBLK
  5
8E
330
88
100
AcDbEntity
  8
0
100
AcDbBlockEnd
  0
BLOCK
  5
90
330
8F
100
AcDbEntity
  8
0
100
AcDbBlockBegin
  2
KOZU0012
 70
     0
 10
0.0
 20
0.0
 30
0.0
  3
KOZU0012
  1

  0
POLYLINE
  5
91
330
8F
100
AcDbEntity
  8
0
  6
Continuous
 62
     7
100
AcDb2dPolyline
 66
     1
 10
0.0
 20
0.0
 30
0.0
 70
     1
 40
0.4000000100000001
 41
0.4000000100000001
  0
VERTEX
  5
92
330
91
100
AcDbEntity
  8
0
  6
Continuous
 62
     7
100
AcDbVertex
100
AcDb2dVertex
 10
-0.2
 20
0.0
 30
0.0
 42
1.0
  0
VERTEX
  5
93
330
91
100
AcDbEntity
  8
0
  6
Continuous
 62
     7
100
AcDbVertex
100
AcDb2dVertex
 10
0.2
 20
0.0
 30
0.0
 42
1.0
  0
SEQEND
  5
94
330
91
100
AcDbEntity
  8
0
  6
Continuous
 62
     7
  0
ENDBLK
  5
95
330
8F
100
AcDbEntity
  8
0
100
AcDbBlockEnd
  0
BLOCK
  5
97
330
96
100
AcDbEntity
  8
0
100
AcDbBlockBegin
  2
KOZU0013
 70
     0
 10
0.0
 20
0.0
 30
0.0
  3
KOZU0013
  1

  0
POLYLINE
  5
98
330
96
100
AcDbEntity
  8
0
  6
Continuous
 62
     7
100
AcDb2dPolyline
 66
     1
 10
0.0
 20
0.0
 30
0.0
 70
     1
 40
0.4000000100000001
 41
0.4000000100000001
  0
VERTEX
  5
99
330
98
100
AcDbEntity
  8
0
  6
Continuous
 62
     7
100
AcDbVertex
100
AcDb2dVertex
 10
-0.2
 20
0.0
 30
0.0
 42
1.0
  0
VERTEX
  5
9A
330
98
100
AcDbEntity
  8
0
  6
Continuous
 62
     7
100
AcDbVertex
100
AcDb2dVertex
 10
0.2
 20
0.0
 30
0.0
 42
1.0
  0
SEQEND
  5
9B
330
98
100
AcDbEntity
  8
0
  6
Continuous
 62
     7
  0
ENDBLK
  5
9C
330
96
100
AcDbEntity
  8
0
100
AcDbBlockEnd
  0
BLOCK
  5
9E
330
9D
100
AcDbEntity
  8
0
100
AcDbBlockBegin
  2
KOZU0014
 70
     0
 10
0.0
 20
0.0
 30
0.0
  3
KOZU0014
  1

  0
POLYLINE
  5
9F
330
9D
100
AcDbEntity
  8
0
  6
Continuous
 62
     7
100
AcDb2dPolyline
 66
     1
 10
0.0
 20
0.0
 30
0.0
 70
     1
 40
0.4000000100000001
 41
0.4000000100000001
  0
VERTEX
  5
A0
330
9F
100
AcDbEntity
  8
0
  6
Continuous
 62
     7
100
AcDbVertex
100
AcDb2dVertex
 10
-0.2
 20
0.0
 30
0.0
 42
1.0
  0
VERTEX
  5
A1
330
9F
100
AcDbEntity
  8
0
  6
Continuous
 62
     7
100
AcDbVertex
100
AcDb2dVertex
 10
0.2
 20
0.0
 30
0.0
 42
1.0
  0
SEQEND
  5
A2
330
9F
100
AcDbEntity
  8
0
  6
Continuous
 62
     7
  0
ENDBLK
  5
A3
330
9D
100
AcDbEntity
  8
0
100
AcDbBlockEnd
  0
BLOCK
  5
A5
330
A4
100
AcDbEntity
  8
0
100
AcDbBlockBegin
  2
KOZU0015
 70
     0
 10
0.0
 20
0.0
 30
0.0
  3
KOZU0015
  1

  0
POLYLINE
  5
A6
330
A4
100
AcDbEntity
  8
0
  6
Continuous
 62
     7
100
AcDb2dPolyline
 66
     1
 10
0.0
 20
0.0
 30
0.0
 70
     1
 40
0.4000000100000001
 41
0.4000000100000001
  0
VERTEX
  5
A7
330
A6
100
AcDbEntity
  8
0
  6
Continuous
 62
     7
100
AcDbVertex
100
AcDb2dVertex
 10
-0.2
 20
0.0
 30
0.0
 42
1.0
  0
VERTEX
  5
A8
330
A6
100
AcDbEntity
  8
0
  6
Continuous
 62
     7
100
AcDbVertex
100
AcDb2dVertex
 10
0.2
 20
0.0
 30
0.0
 42
1.0
  0
SEQEND
  5
A9
330
A6
100
AcDbEntity
  8
0
  6
Continuous
 62
     7
  0
ENDBLK
  5
AA
330
A4
100
AcDbEntity
  8
0
100
AcDbBlockEnd
  0
BLOCK
  5
AC
330
AB
100
AcDbEntity
  8
0
100
AcDbBlockBegin
  2
KOZU0016
 70
     0
 10
0.0
 20
0.0
 30
0.0
  3
KOZU0016
  1

  0
POLYLINE
  5
AD
330
AB
100
AcDbEntity
  8
0
  6
Continuous
 62
     7
100
AcDb2dPolyline
 66
     1
 10
0.0
 20
0.0
 30
0.0
 70
     1
 40
0.4000000100000001
 41
0.4000000100000001
  0
VERTEX
  5
AE
330
AD
100
AcDbEntity
  8
0
  6
Continuous
 62
     7
100
AcDbVertex
100
AcDb2dVertex
 10
-0.2
 20
0.0
 30
0.0
 42
1.0
  0
VERTEX
  5
AF
330
AD
100
AcDbEntity
  8
0
  6
Continuous
 62
     7
100
AcDbVertex
100
AcDb2dVertex
 10
0.2
 20
0.0
 30
0.0
 42
1.0
  0
SEQEND
  5
B0
330
AD
100
AcDbEntity
  8
0
  6
Continuous
 62
     7
  0
ENDBLK
  5
B1
330
AB
100
AcDbEntity
  8
0
100
AcDbBlockEnd
  0
BLOCK
  5
B3
330
B2
100
AcDbEntity
  8
0
100
AcDbBlockBegin
  2
KOZU0017
 70
     0
 10
0.0
 20
0.0
 30
0.0
  3
KOZU0017
  1

  0
POLYLINE
  5
B4
330
B2
100
AcDbEntity
  8
0
  6
Continuous
 62
     7
100
AcDb2dPolyline
 66
     1
 10
0.0
 20
0.0
 30
0.0
 70
     1
 40
0.4000000100000001
 41
0.4000000100000001
  0
VERTEX
  5
B5
330
B4
100
AcDbEntity
  8
0
  6
Continuous
 62
     7
100
AcDbVertex
100
AcDb2dVertex
 10
-0.2
 20
0.0
 30
0.0
 42
1.0
  0
VERTEX
  5
B6
330
B4
100
AcDbEntity
  8
0
  6
Continuous
 62
     7
100
AcDbVertex
100
AcDb2dVertex
 10
0.2
 20
0.0
 30
0.0
 42
1.0
  0
SEQEND
  5
B7
330
B4
100
AcDbEntity
  8
0
  6
Continuous
 62
     7
  0
ENDBLK
  5
B8
330
B2
100
AcDbEntity
  8
0
100
AcDbBlockEnd
  0
BLOCK
  5
BA
330
B9
100
AcDbEntity
  8
0
100
AcDbBlockBegin
  2
KOZU0018
 70
     0
 10
0.0
 20
0.0
 30
0.0
  3
KOZU0018
  1

  0
POLYLINE
  5
BB
330
B9
100
AcDbEntity
  8
0
  6
Continuous
 62
     7
100
AcDb2dPolyline
 66
     1
 10
0.0
 20
0.0
 30
0.0
 70
     1
 40
0.4000000100000001
 41
0.4000000100000001
  0
VERTEX
  5
BC
330
BB
100
AcDbEntity
  8
0
  6
Continuous
 62
     7
100
AcDbVertex
100
AcDb2dVertex
 10
-0.2
 20
0.0
 30
0.0
 42
1.0
  0
VERTEX
  5
BD
330
BB
100
AcDbEntity
  8
0
  6
Continuous
 62
     7
100
AcDbVertex
100
AcDb2dVertex
 10
0.2
 20
0.0
 30
0.0
 42
1.0
  0
SEQEND
  5
BE
330
BB
100
AcDbEntity
  8
0
  6
Continuous
 62
     7
  0
ENDBLK
  5
BF
330
B9
100
AcDbEntity
  8
0
100
AcDbBlockEnd
  0
BLOCK
  5
C1
330
C0
100
AcDbEntity
  8
0
100
AcDbBlockBegin
  2
KOZU0019
 70
     0
 10
0.0
 20
0.0
 30
0.0
  3
KOZU0019
  1

  0
POLYLINE
  5
C2
330
C0
100
AcDbEntity
  8
0
  6
Continuous
 62
     7
100
AcDb2dPolyline
 66
     1
 10
0.0
 20
0.0
 30
0.0
 70
     1
 40
0.4000000100000001
 41
0.4000000100000001
  0
VERTEX
  5
C3
330
C2
100
AcDbEntity
  8
0
  6
Continuous
 62
     7
100
AcDbVertex
100
AcDb2dVertex
 10
-0.2
 20
0.0
 30
0.0
 42
1.0
  0
VERTEX
  5
C4
330
C2
100
AcDbEntity
  8
0
  6
Continuous
 62
     7
100
AcDbVertex
100
AcDb2dVertex
 10
0.2
 20
0.0
 30
0.0
 42
1.0
  0
SEQEND
  5
C5
330
C2
100
AcDbEntity
  8
0
  6
Continuous
 62
     7
  0
ENDBLK
  5
C6
330
C0
100
AcDbEntity
  8
0
100
AcDbBlockEnd
  0
BLOCK
  5
C8
330
C7
100
AcDbEntity
  8
0
100
AcDbBlockBegin
  2
KOZU0020
 70
     0
 10
0.0
 20
0.0
 30
0.0
  3
KOZU0020
  1

  0
POLYLINE
  5
C9
330
C7
100
AcDbEntity
  8
0
  6
Continuous
 62
     7
100
AcDb2dPolyline
 66
     1
 10
0.0
 20
0.0
 30
0.0
 70
     1
 40
0.4000000100000001
 41
0.4000000100000001
  0
VERTEX
  5
CA
330
C9
100
AcDbEntity
  8
0
  6
Continuous
 62
     7
100
AcDbVertex
100
AcDb2dVertex
 10
-0.2
 20
0.0
 30
0.0
 42
1.0
  0
VERTEX
  5
CB
330
C9
100
AcDbEntity
  8
0
  6
Continuous
 62
     7
100
AcDbVertex
100
AcDb2dVertex
 10
0.2
 20
0.0
 30
0.0
 42
1.0
  0
SEQEND
  5
CC
330
C9
100
AcDbEntity
  8
0
  6
Continuous
 62
     7
  0
ENDBLK
  5
CD
330
C7
100
AcDbEntity
  8
0
100
AcDbBlockEnd
  0
BLOCK
  5
CF
330
CE
100
AcDbEntity
  8
0
100
AcDbBlockBegin
  2
KOZU0021
 70
     0
 10
0.0
 20
0.0
 30
0.0
  3
KOZU0021
  1

  0
POLYLINE
  5
D0
330
CE
100
AcDbEntity
  8
0
  6
Continuous
 62
     7
100
AcDb2dPolyline
 66
     1
 10
0.0
 20
0.0
 30
0.0
 70
     1
 40
0.4000000100000001
 41
0.4000000100000001
  0
VERTEX
  5
D1
330
D0
100
AcDbEntity
  8
0
  6
Continuous
 62
     7
100
AcDbVertex
100
AcDb2dVertex
 10
-0.2
 20
0.0
 30
0.0
 42
1.0
  0
VERTEX
  5
D2
330
D0
100
AcDbEntity
  8
0
  6
Continuous
 62
     7
100
AcDbVertex
100
AcDb2dVertex
 10
0.2
 20
0.0
 30
0.0
 42
1.0
  0
SEQEND
  5
D3
330
D0
100
AcDbEntity
  8
0
  6
Continuous
 62
     7
  0
ENDBLK
  5
D4
330
CE
100
AcDbEntity
  8
0
100
AcDbBlockEnd
  0
BLOCK
  5
D6
330
D5
100
AcDbEntity
  8
0
100
AcDbBlockBegin
  2
KOZU0022
 70
     0
 10
0.0
 20
0.0
 30
0.0
  3
KOZU0022
  1

  0
POLYLINE
  5
D7
330
D5
100
AcDbEntity
  8
0
  6
Continuous
 62
     7
100
AcDb2dPolyline
 66
     1
 10
0.0
 20
0.0
 30
0.0
 70
     1
 40
0.4000000100000001
 41
0.4000000100000001
  0
VERTEX
  5
D8
330
D7
100
AcDbEntity
  8
0
  6
Continuous
 62
     7
100
AcDbVertex
100
AcDb2dVertex
 10
-0.2
 20
0.0
 30
0.0
 42
1.0
  0
VERTEX
  5
D9
330
D7
100
AcDbEntity
  8
0
  6
Continuous
 62
     7
100
AcDbVertex
100
AcDb2dVertex
 10
0.2
 20
0.0
 30
0.0
 42
1.0
  0
SEQEND
  5
DA
330
D7
100
AcDbEntity
  8
0
  6
Continuous
 62
     7
  0
ENDBLK
  5
DB
330
D5
100
AcDbEntity
  8
0
100
AcDbBlockEnd
  0
BLOCK
  5
DD
330
DC
100
AcDbEntity
  8
0
100
AcDbBlockBegin
  2
KOZU0023
 70
     0
 10
0.0
 20
0.0
 30
0.0
  3
KOZU0023
  1

  0
POLYLINE
  5
DE
330
DC
100
AcDbEntity
  8
0
  6
Continuous
 62
     7
100
AcDb2dPolyline
 66
     1
 10
0.0
 20
0.0
 30
0.0
 70
     1
 40
0.4000000100000001
 41
0.4000000100000001
  0
VERTEX
  5
DF
330
DE
100
AcDbEntity
  8
0
  6
Continuous
 62
     7
100
AcDbVertex
100
AcDb2dVertex
 10
-0.2
 20
0.0
 30
0.0
 42
1.0
  0
VERTEX
  5
E0
330
DE
100
AcDbEntity
  8
0
  6
Continuous
 62
     7
100
AcDbVertex
100
AcDb2dVertex
 10
0.2
 20
0.0
 30
0.0
 42
1.0
  0
SEQEND
  5
E1
330
DE
100
AcDbEntity
  8
0
  6
Continuous
 62
     7
  0
ENDBLK
  5
E2
330
DC
100
AcDbEntity
  8
0
100
AcDbBlockEnd
  0
BLOCK
  5
E4
330
E3
100
AcDbEntity
  8
0
100
AcDbBlockBegin
  2
KOZU0024
 70
     0
 10
0.0
 20
0.0
 30
0.0
  3
KOZU0024
  1

  0
POLYLINE
  5
E5
330
E3
100
AcDbEntity
  8
0
  6
Continuous
 62
     7
100
AcDb2dPolyline
 66
     1
 10
0.0
 20
0.0
 30
0.0
 70
     1
 40
0.4000000100000001
 41
0.4000000100000001
  0
VERTEX
  5
E6
330
E5
100
AcDbEntity
  8
0
  6
Continuous
 62
     7
100
AcDbVertex
100
AcDb2dVertex
 10
-0.2
 20
0.0
 30
0.0
 42
1.0
  0
VERTEX
  5
E7
330
E5
100
AcDbEntity
  8
0
  6
Continuous
 62
     7
100
AcDbVertex
100
AcDb2dVertex
 10
0.2
 20
0.0
 30
0.0
 42
1.0
  0
SEQEND
  5
E8
330
E5
100
AcDbEntity
  8
0
  6
Continuous
 62
     7
  0
ENDBLK
  5
E9
330
E3
100
AcDbEntity
  8
0
100
AcDbBlockEnd
  0
BLOCK
  5
EB
330
EA
100
AcDbEntity
  8
0
100
AcDbBlockBegin
  2
KOZU0025
 70
     0
 10
0.0
 20
0.0
 30
0.0
  3
KOZU0025
  1

  0
POLYLINE
  5
EC
330
EA
100
AcDbEntity
  8
0
  6
Continuous
 62
     7
100
AcDb2dPolyline
 66
     1
 10
0.0
 20
0.0
 30
0.0
 70
     1
 40
0.4000000100000001
 41
0.4000000100000001
  0
VERTEX
  5
ED
330
EC
100
AcDbEntity
  8
0
  6
Continuous
 62
     7
100
AcDbVertex
100
AcDb2dVertex
 10
-0.2
 20
0.0
 30
0.0
 42
1.0
  0
VERTEX
  5
EE
330
EC
100
AcDbEntity
  8
0
  6
Continuous
 62
     7
100
AcDbVertex
100
AcDb2dVertex
 10
0.2
 20
0.0
 30
0.0
 42
1.0
  0
SEQEND
  5
EF
330
EC
100
AcDbEntity
  8
0
  6
Continuous
 62
     7
  0
ENDBLK
  5
F0
330
EA
100
AcDbEntity
  8
0
100
AcDbBlockEnd
  0
BLOCK
  5
F2
330
F1
100
AcDbEntity
  8
0
100
AcDbBlockBegin
  2
KOZU0026
 70
     0
 10
0.0
 20
0.0
 30
0.0
  3
KOZU0026
  1

  0
POLYLINE
  5
F3
330
F1
100
AcDbEntity
  8
0
  6
Continuous
 62
     7
100
AcDb2dPolyline
 66
     1
 10
0.0
 20
0.0
 30
0.0
 70
     1
 40
0.4000000100000001
 41
0.4000000100000001
  0
VERTEX
  5
F4
330
F3
100
AcDbEntity
  8
0
  6
Continuous
 62
     7
100
AcDbVertex
100
AcDb2dVertex
 10
-0.2
 20
0.0
 30
0.0
 42
1.0
  0
VERTEX
  5
F5
330
F3
100
AcDbEntity
  8
0
  6
Continuous
 62
     7
100
AcDbVertex
100
AcDb2dVertex
 10
0.2
 20
0.0
 30
0.0
 42
1.0
  0
SEQEND
  5
F6
330
F3
100
AcDbEntity
  8
0
  6
Continuous
 62
     7
  0
ENDBLK
  5
F7
330
F1
100
AcDbEntity
  8
0
100
AcDbBlockEnd
  0
BLOCK
  5
2EC
330
2EA
100
AcDbEntity
  8
0
100
AcDbBlockBegin
  2
GENAXEH
 70
     0
 10
0.0
 20
0.0
 30
0.0
  3
GENAXEH
  1

  0
LINE
  5
2EB
330
2EA
100
AcDbEntity
  8
0
100
AcDbLine
 10
-1.0
 20
0.0
 30
0.0
 11
1.0
 21
0.0
 31
0.0
  0
ENDBLK
  5
2ED
330
2EA
100
AcDbEntity
  8
0
100
AcDbBlockEnd
  0
ENDSEC
  0
SECTION
  2
ENTITIES
  0
POINT
  5
F8
330
36
100
AcDbEntity
  8
0
  6
Continuous
 62
     3
100
AcDbPoint
 10
682.39435
 20
799.8952599999999
 30
0.0
  0
POINT
  5
F9
330
36
100
AcDbEntity
  8
0
  6
Continuous
 62
     3
100
AcDbPoint
 10
682.39435
 20
759.4953
 30
0.0
  0
POINT
  5
FA
330
36
100
AcDbEntity
  8
0
  6
Continuous
 62
     3
100
AcDbPoint
 10
715.89099
 20
759.4953
 30
0.0
  0
POINT
  5
FB
330
36
100
AcDbEntity
  8
0
  6
Continuous
 62
     3
100
AcDbPoint
 10
654.8909899999999
 20
762.4953
 30
0.0
  0
POINT
  5
FC
330
36
100
AcDbEntity
  8
0
  6
Continuous
 62
     3
100
AcDbPoint
 10
670.89099
 20
762.4953
 30
0.0
  0
POINT
  5
FD
330
36
100
AcDbEntity
  8
0
  6
Continuous
 62
     3
100
AcDbPoint
 10
670.89099
 20
744.4953
 30
0.0
  0
POINT
  5
FE
330
36
100
AcDbEntity
  8
0
  6
Continuous
 62
     3
100
AcDbPoint
 10
678.39099
 20
757.5522499999999
 30
0.0
  0
POINT
  5
FF
330
36
100
AcDbEntity
  8
0
  6
Continuous
 62
     3
100
AcDbPoint
 10
633.19098
 20
777.8027299999999
 30
0.0
  0
POINT
  5
100
330
36
100
AcDbEntity
  8
0
  6
Continuous
 62
     3
100
AcDbPoint
 10
633.19098
 20
729.4953
 30
0.0
  0
POINT
  5
101
330
36
100
AcDbEntity
  8
0
  6
Continuous
 62
     3
100
AcDbPoint
 10
637.69019
 20
786.19525
 30
0.0
  0
POINT
  5
102
330
36
100
AcDbEntity
  8
0
  6
Continuous
 62
     3
100
AcDbPoint
 10
637.69019
 20
773.19525
 30
0.0
  0
POINT
  5
103
330
36
100
AcDbEntity
  8
0
  6
Continuous
 62
     3
100
AcDbPoint
 10
618.1909799999999
 20
773.19525
 30
0.0
  0
POINT
  5
104
330
36
100
AcDbEntity
  8
0
  6
Continuous
 62
     3
100
AcDbPoint
 10
633.19098
 20
685.7249799999999
 30
0.0
  0
POINT
  5
105
330
36
100
AcDbEntity
  8
0
  6
Continuous
 62
     3
100
AcDbPoint
 10
639.8909899999999
 20
683.7249799999999
 30
0.0
  0
POINT
  5
106
330
36
100
AcDbEntity
  8
0
  6
Continuous
 62
     3
100
AcDbPoint
 10
623.1909799999999
 20
683.7249799999999
 30
0.0
  0
POINT
  5
107
330
36
100
AcDbEntity
  8
0
  6
Continuous
 62
     3
100
AcDbPoint
 10
633.19098
 20
687.7249799999999
 30
0.0
  0
POINT
  5
108
330
36
100
AcDbEntity
  8
0
  6
Continuous
 62
     3
100
AcDbPoint
 10
633.19098
 20
685.7249799999999
 30
0.0
  0
POINT
  5
109
330
36
100
AcDbEntity
  8
0
  6
Continuous
 62
     3
100
AcDbPoint
 10
623.1909799999999
 20
685.7249799999999
 30
0.0
  0
POINT
  5
10A
330
36
100
AcDbEntity
  8
0
  6
Continuous
 62
     3
100
AcDbPoint
 10
654.8909899999999
 20
762.4953
 30
0.0
  0
POINT
  5
10B
330
36
100
AcDbEntity
  8
0
  6
Continuous
 62
     3
100
AcDbPoint
 10
639.8909899999999
 20
762.4953
 30
0.0
  0
POINT
  5
10C
330
36
100
AcDbEntity
  8
0
  6
Continuous
 62
     3
100
AcDbPoint
 10
639.8909899999999
 20
744.4953
 30
0.0
  0
POINT
  5
10D
330
36
100
AcDbEntity
  8
0
  6
Continuous
 62
     3
100
AcDbPoint
 10
682.39435
 20
799.8952599999999
 30
0.0
  0
POINT
  5
10E
330
36
100
AcDbEntity
  8
0
  6
Continuous
 62
     3
100
AcDbPoint
 10
682.39099
 20
793.89526
 30
0.0
  0
POINT
  5
10F
330
36
100
AcDbEntity
  8
0
  6
Continuous
 62
     3
100
AcDbPoint
 10
700.8909899999999
 20
793.89526
 30
0.0
  0
POINT
  5
110
330
36
100
AcDbEntity
  8
0
  6
Continuous
 62
     3
100
AcDbPoint
 10
682.39099
 20
765.4953
 30
0.0
  0
POINT
  5
111
330
36
100
AcDbEntity
  8
0
  6
Continuous
 62
     3
100
AcDbPoint
 10
682.39435
 20
759.4953
 30
0.0
  0
POINT
  5
112
330
36
100
AcDbEntity
  8
0
  6
Continuous
 62
     3
100
AcDbPoint
 10
700.8909899999999
 20
759.4953
 30
0.0
  0
POINT
  5
113
330
36
100
AcDbEntity
  8
0
  6
Continuous
 62
     3
100
AcDbPoint
 10
682.39099
 20
793.89526
 30
0.0
  0
POINT
  5
114
330
36
100
AcDbEntity
  8
0
  6
Continuous
 62
     3
100
AcDbPoint
 10
682.39099
 20
765.4953
 30
0.0
  0
POINT
  5
115
330
36
100
AcDbEntity
  8
0
  6
Continuous
 62
     3
100
AcDbPoint
 10
700.8909899999999
 20
765.4953
 30
0.0
  0
POINT
  5
116
330
36
100
AcDbEntity
  8
0
  6
Continuous
 62
     3
100
AcDbPoint
 10
670.89099
 20
762.4953
 30
0.0
  0
POINT
  5
117
330
36
100
AcDbEntity
  8
0
  6
Continuous
 62
     3
100
AcDbPoint
 10
685.89099
 20
762.4953
 30
0.0
  0
POINT
  5
118
330
36
100
AcDbEntity
  8
0
  6
Continuous
 62
     3
100
AcDbPoint
 10
685.89099
 20
744.4953
 30
0.0
  0
POINT
  5
119
330
36
100
AcDbEntity
  8
0
  6
Continuous
 62
     3
100
AcDbPoint
 10
680.1489899999999
 20
796.32617
 30
0.0
  0
POINT
  5
11A
330
36
100
AcDbEntity
  8
0
  6
Continuous
 62
     3
100
AcDbPoint
 10
676.6329299999999
 20
791.4643599999999
 30
0.0
  0
POINT
  5
11C
330
36
100
AcDbEntity
  8
0
  6
Continuous
 62
     3
100
AcDbPoint
 10
633.19098
 20
687.7249799999999
 30
0.0
  0
POINT
  5
11D
330
36
100
AcDbEntity
  8
0
  6
Continuous
 62
     3
100
AcDbPoint
 10
634.1909799999999
 20
699.7249799999999
 30
0.0
  0
LINE
  5
11F
330
36
100
AcDbEntity
  8
0
  6
Continuous
 62
     7
100
AcDbLine
 10
619.81635
 20
625.13446
 30
0.0
 11
833.81635
 21
625.13446
 31
0.0
  0
LINE
  5
120
330
36
100
AcDbEntity
  8
0
  6
Continuous
 62
     7
100
AcDbLine
 10
619.81635
 20
615.1344599999999
 30
0.0
 11
833.81635
 21
615.1344599999999
 31
0.0
  0
LINE
  5
121
330
36
100
AcDbEntity
  8
0
  6
Continuous
 62
     7
100
AcDbLine
 10
619.81635
 20
605.13446
 30
0.0
 11
833.81635
 21
605.13446
 31
0.0
  0
LINE
  5
122
330
36
100
AcDbEntity
  8
0
  6
Continuous
 62
     7
100
AcDbLine
 10
619.81635
 20
595.1344599999999
 30
0.0
 11
833.81635
 21
595.1344599999999
 31
0.0
  0
LINE
  5
123
330
36
100
AcDbEntity
  8
0
  6
Continuous
 62
     3
100
AcDbLine
 10
683.39435
 20
799.8952599999999
 30
0.0
 11
716.89099
 21
799.8952599999999
 31
0.0
  0
LINE
  5
124
330
36
100
AcDbEntity
  8
0
  6
Continuous
 62
     3
100
AcDbLine
 10
683.39435
 20
759.4953
 30
0.0
 11
716.89099
 21
759.4953
 31
0.0
  0
LINE
  5
125
330
36
100
AcDbEntity
  8
0
  6
Continuous
 62
     3
100
AcDbLine
 10
715.89099
 20
799.09528
 30
0.0
 11
715.89099
 21
760.29529
 31
0.0
  0
LINE
  5
126
330
36
100
AcDbEntity
  8
0
  6
Continuous
 62
     7
100
AcDbLine
 10
715.89099
 20
799.4953
 30
0.0
 11
715.89099
 21
799.09528
 31
0.0
  0
LINE
  5
127
330
36
100
AcDbEntity
  8
0
  6
Continuous
 62
     7
100
AcDbLine
 10
715.89099
 20
759.89526
 30
0.0
 11
715.89099
 21
760.29529
 31
0.0
  0
LINE
  5
128
330
36
100
AcDbEntity
  8
0
  6
Continuous
 62
     7
100
AcDbLine
 10
619.81635
 20
625.13446
 30
0.0
 11
619.81635
 21
595.1344599999999
 31
0.0
  0
LINE
  5
129
330
36
100
AcDbEntity
  8
0
  6
Continuous
 62
     7
100
AcDbLine
 10
649.81635
 20
625.13446
 30
0.0
 11
649.81635
 21
595.1344599999999
 31
0.0
  0
LINE
  5
12A
330
36
100
AcDbEntity
  8
0
  6
Continuous
 62
     7
100
AcDbLine
 10
665.81635
 20
625.13446
 30
0.0
 11
665.81635
 21
595.1344599999999
 31
0.0
  0
LINE
  5
12B
330
36
100
AcDbEntity
  8
0
  6
Continuous
 62
     7
100
AcDbLine
 10
681.81635
 20
625.13446
 30
0.0
 11
681.81635
 21
595.1344599999999
 31
0.0
  0
LINE
  5
12C
330
36
100
AcDbEntity
  8
0
  6
Continuous
 62
     7
100
AcDbLine
 10
651.3909899999999
 20
786.19525
 30
0.0
 11
676.8909899999999
 21
786.19525
 31
0.0
  0
LINE
  5
12D
330
36
100
AcDbEntity
  8
0
  6
Continuous
 62
     7
100
AcDbLine
 10
651.3909899999999
 20
773.19525
 30
0.0
 11
676.8909899999999
 21
773.19525
 31
0.0
  0
LINE
  5
12E
330
36
100
AcDbEntity
  8
0
  6
Continuous
 62
     7
100
AcDbLine
 10
651.3909899999999
 20
687.7249799999999
 30
0.0
 11
683.39099
 21
687.7249799999999
 31
0.0
  0
LINE
  5
12F
330
36
100
AcDbEntity
  8
0
  6
Continuous
 62
     7
100
AcDbLine
 10
633.19098
 20
685.7249799999999
 30
0.0
 11
685.89099
 21
685.7249799999999
 31
0.0
  0
LINE
  5
130
330
36
100
AcDbEntity
  8
0
  6
CENTER
 62
     4
100
AcDbLine
 10
630.22546
 20
779.6952499999999
 30
0.0
 11
687.5446199999999
 21
779.6952499999999
 31
0.0
  0
LINE
  5
131
330
36
100
AcDbEntity
  8
0
  6
Continuous
 62
     3
100
AcDbLine
 10
654.8909899999999
 20
761.4953
 30
0.0
 11
654.8909899999999
 21
743.4953
 31
0.0
  0
LINE
  5
132
330
36
100
AcDbEntity
  8
0
  6
Continuous
 62
     3
100
AcDbLine
 10
670.89099
 20
761.4953
 30
0.0
 11
670.89099
 21
743.4953
 31
0.0
  0
LINE
  5
133
330
36
100
AcDbEntity
  8
0
  6
Continuous
 62
     3
100
AcDbLine
 10
655.6909799999999
 20
744.4953
 30
0.0
 11
670.091
 21
744.4953
 31
0.0
  0
LINE
  5
134
330
36
100
AcDbEntity
  8
0
  6
Continuous
 62
     7
100
AcDbLine
 10
655.2909499999999
 20
744.4953
 30
0.0
 11
655.6909799999999
 21
744.4953
 31
0.0
  0
LINE
  5
135
330
36
100
AcDbEntity
  8
0
  6
Continuous
 62
     7
100
AcDbLine
 10
670.49097
 20
744.4953
 30
0.0
 11
670.091
 21
744.4953
 31
0.0
  0
LINE
  5
136
330
36
100
AcDbEntity
  8
0
  6
Continuous
 62
     3
100
AcDbLine
 10
678.39099
 20
756.55225
 30
0.0
 11
678.39099
 21
728.4953
 31
0.0
  0
LINE
  5
137
330
36
100
AcDbEntity
  8
0
  6
Continuous
 62
     3
100
AcDbLine
 10
633.19098
 20
776.8027299999999
 30
0.0
 11
633.19098
 21
728.4953
 31
0.0
  0
LINE
  5
138
330
36
100
AcDbEntity
  8
0
  6
Continuous
 62
     3
100
AcDbLine
 10
677.591
 20
729.4953
 30
0.0
 11
633.99097
 21
729.4953
 31
0.0
  0
LINE
  5
139
330
36
100
AcDbEntity
  8
0
  6
Continuous
 62
     7
100
AcDbLine
 10
677.9909700000001
 20
729.4953
 30
0.0
 11
677.591
 21
729.4953
 31
0.0
  0
LINE
  5
13A
330
36
100
AcDbEntity
  8
0
  6
Continuous
 62
     7
100
AcDbLine
 10
633.591
 20
729.4953
 30
0.0
 11
633.99097
 21
729.4953
 31
0.0
  0
LINE
  5
13B
330
36
100
AcDbEntity
  8
0
  6
CENTER
 62
     4
100
AcDbLine
 10
647.3909899999999
 20
797.89526
 30
0.0
 11
647.3909899999999
 21
789.89526
 31
0.0
  0
LINE
  5
13C
330
36
100
AcDbEntity
  8
0
  6
Continuous
 62
     7
100
AcDbLine
 10
633.19098
 20
687.7249799999999
 30
0.0
 11
643.3909899999999
 21
687.7249799999999
 31
0.0
  0
LINE
  5
13D
330
36
100
AcDbEntity
  8
0
  6
Continuous
 62
     3
100
AcDbLine
 10
636.69019
 20
786.19525
 30
0.0
 11
617.1909799999999
 21
786.19525
 31
0.0
  0
LINE
  5
13E
330
36
100
AcDbEntity
  8
0
  6
Continuous
 62
     3
100
AcDbLine
 10
636.69019
 20
773.19525
 30
0.0
 11
617.1909799999999
 21
773.19525
 31
0.0
  0
LINE
  5
13F
330
36
100
AcDbEntity
  8
0
  6
Continuous
 62
     3
100
AcDbLine
 10
618.1909799999999
 20
785.39526
 30
0.0
 11
618.1909799999999
 21
773.9953
 31
0.0
  0
LINE
  5
140
330
36
100
AcDbEntity
  8
0
  6
Continuous
 62
     7
100
AcDbLine
 10
618.1909799999999
 20
785.79529
 30
0.0
 11
618.1909799999999
 21
785.39526
 31
0.0
  0
LINE
  5
141
330
36
100
AcDbEntity
  8
0
  6
Continuous
 62
     7
100
AcDbLine
 10
618.1909799999999
 20
773.59528
 30
0.0
 11
618.1909799999999
 21
773.9953
 31
0.0
  0
LINE
  5
142
330
36
100
AcDbEntity
  8
0
  6
Continuous
 62
     3
100
AcDbLine
 10
632.19098
 20
685.7249799999999
 30
0.0
 11
622.1909799999999
 21
685.7249799999999
 31
0.0
  0
LINE
  5
143
330
36
100
AcDbEntity
  8
0
  6
Continuous
 62
     3
100
AcDbLine
 10
638.8909899999999
 20
683.7249799999999
 30
0.0
 11
622.1909799999999
 21
683.7249799999999
 31
0.0
  0
LINE
  5
144
330
36
100
AcDbEntity
  8
0
  6
Continuous
 62
     3
100
AcDbLine
 10
623.1909799999999
 20
686.5249599999999
 30
0.0
 11
623.1909799999999
 21
687.32495
 31
0.0
  0
LINE
  5
145
330
36
100
AcDbEntity
  8
0
  6
Continuous
 62
     3
100
AcDbLine
 10
623.1909799999999
 20
682.92499
 30
0.0
 11
623.1909799999999
 21
677.5715299999999
 31
0.0
  0
LINE
  5
146
330
36
100
AcDbEntity
  8
0
  6
Continuous
 62
     3
100
AcDbLine
 10
623.1909799999999
 20
685.7249799999999
 30
0.0
 11
623.1909799999999
 21
683.7249799999999
 31
0.0
  0
LINE
  5
147
330
36
100
AcDbEntity
  8
0
  6
Continuous
 62
     7
100
AcDbLine
 10
623.1909799999999
 20
686.12494
 30
0.0
 11
623.1909799999999
 21
686.5249599999999
 31
0.0
  0
LINE
  5
148
330
36
100
AcDbEntity
  8
0
  6
Continuous
 62
     7
100
AcDbLine
 10
623.1909799999999
 20
683.3249499999999
 30
0.0
 11
623.1909799999999
 21
682.92499
 31
0.0
  0
LINE
  5
149
330
36
100
AcDbEntity
  8
0
  6
Continuous
 62
     3
100
AcDbLine
 10
632.19098
 20
687.7249799999999
 30
0.0
 11
622.1909799999999
 21
687.7249799999999
 31
0.0
  0
LINE
  5
14A
330
36
100
AcDbEntity
  8
0
  6
Continuous
 62
     3
100
AcDbLine
 10
632.19098
 20
685.7249799999999
 30
0.0
 11
622.1909799999999
 21
685.7249799999999
 31
0.0
  0
LINE
  5
14B
330
36
100
AcDbEntity
  8
0
  6
Continuous
 62
     3
100
AcDbLine
 10
623.1909799999999
 20
688.5249599999999
 30
0.0
 11
623.1909799999999
 21
689.3249499999999
 31
0.0
  0
LINE
  5
14C
330
36
100
AcDbEntity
  8
0
  6
Continuous
 62
     3
100
AcDbLine
 10
623.1909799999999
 20
684.9249900000001
 30
0.0
 11
623.1909799999999
 21
684.12494
 31
0.0
  0
LINE
  5
14D
330
36
100
AcDbEntity
  8
0
  6
Continuous
 62
     3
100
AcDbLine
 10
623.1909799999999
 20
687.7249799999999
 30
0.0
 11
623.1909799999999
 21
685.7249799999999
 31
0.0
  0
LINE
  5
14E
330
36
100
AcDbEntity
  8
0
  6
Continuous
 62
     7
100
AcDbLine
 10
623.1909799999999
 20
688.12494
 30
0.0
 11
623.1909799999999
 21
688.5249599999999
 31
0.0
  0
LINE
  5
14F
330
36
100
AcDbEntity
  8
0
  6
Continuous
 62
     7
100
AcDbLine
 10
623.1909799999999
 20
685.3249499999999
 30
0.0
 11
623.1909799999999
 21
684.9249900000001
 31
0.0
  0
LINE
  5
150
330
36
100
AcDbEntity
  8
0
  6
Continuous
 62
     7
100
AcDbLine
 10
633.19098
 20
687.7249799999999
 30
0.0
 11
633.19098
 21
685.7249799999999
 31
0.0
  0
LINE
  5
151
330
36
100
AcDbEntity
  8
0
  6
Continuous
 62
     7
100
AcDbLine
 10
651.39093
 20
696.6190199999999
 30
0.0
 11
650.28503
 21
697.72498
 31
0.0
  0
LINE
  5
152
330
36
100
AcDbEntity
  8
0
  6
Continuous
 62
     7
100
AcDbLine
 10
651.04004
 20
694.7249799999999
 30
0.0
 11
648.04004
 21
697.72498
 31
0.0
  0
LINE
  5
153
330
36
100
AcDbEntity
  8
0
  6
Continuous
 62
     7
100
AcDbLine
 10
648.79492
 20
694.7249799999999
 30
0.0
 11
645.79492
 21
697.72498
 31
0.0
  0
LINE
  5
154
330
36
100
AcDbEntity
  8
0
  6
Continuous
 62
     7
100
AcDbLine
 10
646.54987
 20
694.7249099999999
 30
0.0
 11
643.5498700000001
 21
697.7249099999998
 31
0.0
  0
LINE
  5
155
330
36
100
AcDbEntity
  8
0
  6
Continuous
 62
     7
100
AcDbLine
 10
644.3048099999999
 20
694.7249799999999
 30
0.0
 11
643.3909899999999
 21
695.6387900000001
 31
0.0
  0
LINE
  5
156
330
36
100
AcDbEntity
  8
0
  6
Continuous
 62
     7
100
AcDbLine
 10
651.24078
 20
694.7249799999999
 30
0.0
 11
651.3909899999999
 21
694.87518
 31
0.0
  0
LINE
  5
157
330
36
100
AcDbEntity
  8
0
  6
Continuous
 62
     7
100
AcDbLine
 10
648.99573
 20
694.7249799999999
 30
0.0
 11
651.39093
 21
697.12018
 31
0.0
  0
LINE
  5
158
330
36
100
AcDbEntity
  8
0
  6
Continuous
 62
     7
100
AcDbLine
 10
646.7506099999999
 20
694.7249099999999
 30
0.0
 11
649.75067
 21
697.72498
 31
0.0
  0
LINE
  5
159
330
36
100
AcDbEntity
  8
0
  6
Continuous
 62
     7
100
AcDbLine
 10
644.50562
 20
694.7249799999999
 30
0.0
 11
647.5055499999999
 21
697.7249099999998
 31
0.0
  0
LINE
  5
15A
330
36
100
AcDbEntity
  8
0
  6
Continuous
 62
     7
100
AcDbLine
 10
643.39093
 20
695.85541
 30
0.0
 11
645.2605599999999
 21
697.72498
 31
0.0
  0
LINE
  5
15B
330
36
100
AcDbEntity
  8
0
  6
DASHED
 62
     4
100
AcDbLine
 10
643.3909899999999
 20
687.7249799999999
 30
0.0
 11
651.3909899999999
 21
687.7249799999999
 31
0.0
  0
LINE
  5
15C
330
36
100
AcDbEntity
  8
0
  6
Continuous
 62
     7
100
AcDbLine
 10
643.3909899999999
 20
694.7249799999999
 30
0.0
 11
651.3909899999999
 21
694.7249799999999
 31
0.0
  0
LINE
  5
15D
330
36
100
AcDbEntity
  8
0
  6
Continuous
 62
     7
100
AcDbLine
 10
643.3909899999999
 20
691.7249799999999
 30
0.0
 11
651.3909899999999
 21
691.7249799999999
 31
0.0
  0
LINE
  5
15E
330
36
100
AcDbEntity
  8
0
  6
Continuous
 62
     7
100
AcDbLine
 10
643.3909899999999
 20
697.72498
 30
0.0
 11
651.3909899999999
 21
697.72498
 31
0.0
  0
LINE
  5
15F
330
36
100
AcDbEntity
  8
0
  6
Continuous
 62
     7
100
AcDbLine
 10
639.8909899999999
 20
683.7249799999999
 30
0.0
 11
654.8909899999999
 21
683.7249799999999
 31
0.0
  0
LINE
  5
160
330
36
100
AcDbEntity
  8
0
  6
Continuous
 62
     7
100
AcDbLine
 10
643.3909899999999
 20
691.7249799999999
 30
0.0
 11
643.3909899999999
 21
685.7249799999999
 31
0.0
  0
LINE
  5
161
330
36
100
AcDbEntity
  8
0
  6
CENTER
 62
     4
100
AcDbLine
 10
638.1909799999999
 20
700.8947799999999
 30
0.0
 11
638.1909799999999
 21
684.51404
 31
0.0
  0
LINE
  5
162
330
36
100
AcDbEntity
  8
0
  6
Continuous
 62
     7
100
AcDbLine
 10
639.8909899999999
 20
685.7249799999999
 30
0.0
 11
639.8909899999999
 21
683.7249799999999
 31
0.0
  0
LINE
  5
163
330
36
100
AcDbEntity
  8
0
  6
Continuous
 62
     7
100
AcDbLine
 10
642.1909799999999
 20
699.08386
 30
0.0
 11
641.54987
 21
699.7249099999999
 31
0.0
  0
LINE
  5
164
330
36
100
AcDbEntity
  8
0
  6
Continuous
 62
     7
100
AcDbLine
 10
642.1909799999999
 20
696.8388099999999
 30
0.0
 11
639.3048099999999
 21
699.7249799999999
 31
0.0
  0
LINE
  5
165
330
36
100
AcDbEntity
  8
0
  6
Continuous
 62
     7
100
AcDbLine
 10
640.6597299999999
 20
696.12494
 30
0.0
 11
637.05975
 21
699.7249799999999
 31
0.0
  0
LINE
  5
166
330
36
100
AcDbEntity
  8
0
  6
Continuous
 62
     7
100
AcDbLine
 10
638.41467
 20
696.1249999999999
 30
0.0
 11
634.8146999999999
 21
699.7249799999999
 31
0.0
  0
LINE
  5
167
330
36
100
AcDbEntity
  8
0
  6
Continuous
 62
     7
100
AcDbLine
 10
636.1696199999999
 20
696.12494
 30
0.0
 11
634.1909799999999
 21
698.1035799999999
 31
0.0
  0
LINE
  5
168
330
36
100
AcDbEntity
  8
0
  6
Continuous
 62
     7
100
AcDbLine
 10
641.41547
 20
696.12494
 30
0.0
 11
642.1909799999999
 21
696.9005099999999
 31
0.0
  0
LINE
  5
169
330
36
100
AcDbEntity
  8
0
  6
Continuous
 62
     7
100
AcDbLine
 10
639.1704099999999
 20
696.12494
 30
0.0
 11
642.1909799999999
 21
699.1455099999999
 31
0.0
  0
LINE
  5
16A
330
36
100
AcDbEntity
  8
0
  6
Continuous
 62
     7
100
AcDbLine
 10
636.92529
 20
696.12494
 30
0.0
 11
640.5253299999999
 21
699.7249799999999
 31
0.0
  0
LINE
  5
16B
330
36
100
AcDbEntity
  8
0
  6
Continuous
 62
     7
100
AcDbLine
 10
634.6803
 20
696.1249999999999
 30
0.0
 11
638.28027
 21
699.7249799999999
 31
0.0
  0
LINE
  5
16C
330
36
100
AcDbEntity
  8
0
  6
Continuous
 62
     7
100
AcDbLine
 10
634.1909799999999
 20
697.88074
 30
0.0
 11
636.03522
 21
699.7249799999999
 31
0.0
  0
LINE
  5
16D
330
36
100
AcDbEntity
  8
0
  6
Continuous
 62
     7
100
AcDbLine
 10
634.1909799999999
 20
696.12494
 30
0.0
 11
642.1909799999999
 21
696.12494
 31
0.0
  0
LINE
  5
16E
330
36
100
AcDbEntity
  8
0
  6
Continuous
 62
     7
100
AcDbLine
 10
634.1909799999999
 20
699.7249799999999
 30
0.0
 11
642.1909799999999
 21
699.7249799999999
 31
0.0
  0
LINE
  5
16F
330
36
100
AcDbEntity
  8
0
  6
Continuous
 62
     7
100
AcDbLine
 10
635.1909799999999
 20
696.12494
 30
0.0
 11
635.1909799999999
 21
687.7249799999999
 31
0.0
  0
LINE
  5
170
330
36
100
AcDbEntity
  8
0
  6
Continuous
 62
     7
100
AcDbLine
 10
634.1909799999999
 20
699.7249799999999
 30
0.0
 11
634.1909799999999
 21
696.12494
 31
0.0
  0
LINE
  5
171
330
36
100
AcDbEntity
  8
0
  6
Continuous
 62
     7
100
AcDbLine
 10
641.19098
 20
696.12494
 30
0.0
 11
641.19098
 21
687.7249799999999
 31
0.0
  0
LINE
  5
172
330
36
100
AcDbEntity
  8
0
  6
Continuous
 62
     7
100
AcDbLine
 10
642.1909799999999
 20
699.7249799999999
 30
0.0
 11
642.1909799999999
 21
696.12494
 31
0.0
  0
LINE
  5
173
330
36
100
AcDbEntity
  8
0
  6
Continuous
 62
     7
100
AcDbLine
 10
643.3909899999999
 20
697.72498
 30
0.0
 11
643.3909899999999
 21
694.7249799999999
 31
0.0
  0
LINE
  5
174
330
36
100
AcDbEntity
  8
0
  6
Continuous
 62
     7
100
AcDbLine
 10
645.39099
 20
694.7249799999999
 30
0.0
 11
645.39099
 21
691.7249799999999
 31
0.0
  0
LINE
  5
175
330
36
100
AcDbEntity
  8
0
  6
Continuous
 62
     7
100
AcDbLine
 10
651.3909899999999
 20
691.7249799999999
 30
0.0
 11
651.3909899999999
 21
685.7249799999999
 31
0.0
  0
LINE
  5
176
330
36
100
AcDbEntity
  8
0
  6
CENTER
 62
     4
100
AcDbLine
 10
647.3909899999999
 20
699.4190099999999
 30
0.0
 11
647.3909899999999
 21
681.78394
 31
0.0
  0
LINE
  5
177
330
36
100
AcDbEntity
  8
0
  6
Continuous
 62
     7
100
AcDbLine
 10
654.8909899999999
 20
685.7249799999999
 30
0.0
 11
654.8909899999999
 21
683.7249799999999
 31
0.0
  0
LINE
  5
178
330
36
100
AcDbEntity
  8
0
  6
Continuous
 62
     7
100
AcDbLine
 10
651.3909899999999
 20
697.72498
 30
0.0
 11
651.3909899999999
 21
694.7249799999999
 31
0.0
  0
LINE
  5
179
330
36
100
AcDbEntity
  8
0
  6
Continuous
 62
     7
100
AcDbLine
 10
649.39099
 20
694.7249799999999
 30
0.0
 11
649.39099
 21
691.7249799999999
 31
0.0
  0
LINE
  5
17A
330
36
100
AcDbEntity
  8
0
  6
Continuous
 62
     7
100
AcDbLine
 10
643.3909899999999
 20
786.19525
 30
0.0
 11
651.3909899999999
 21
786.19525
 31
0.0
  0
LINE
  5
17B
330
36
100
AcDbEntity
  8
0
  6
DASHED
 62
     6
100
AcDbLine
 10
643.3909899999999
 20
773.19525
 30
0.0
 11
651.3909899999999
 21
773.19525
 31
0.0
  0
LINE
  5
17C
330
36
100
AcDbEntity
  8
0
  6
Continuous
 62
     7
100
AcDbLine
 10
643.3909899999999
 20
788.1952499999999
 30
0.0
 11
651.3909899999999
 21
788.1952499999999
 31
0.0
  0
LINE
  5
17D
330
36
100
AcDbEntity
  8
0
  6
Continuous
 62
     7
100
AcDbLine
 10
643.3909899999999
 20
772.19525
 30
0.0
 11
651.3909899999999
 21
772.19525
 31
0.0
  0
LINE
  5
17E
330
36
100
AcDbEntity
  8
0
  6
CENTER
 62
     4
100
AcDbLine
 10
651.3909899999999
 20
765.4953
 30
0.0
 11
643.3909899999999
 21
765.4953
 31
0.0
  0
LINE
  5
17F
330
36
100
AcDbEntity
  8
0
  6
CENTER
 62
     4
100
AcDbLine
 10
651.3909899999999
 20
793.89526
 30
0.0
 11
643.3909899999999
 21
793.89526
 31
0.0
  0
LINE
  5
180
330
36
100
AcDbEntity
  8
0
  6
Continuous
 62
     3
100
AcDbLine
 10
654.8909899999999
 20
761.4953
 30
0.0
 11
654.8909899999999
 21
743.4953
 31
0.0
  0
LINE
  5
181
330
36
100
AcDbEntity
  8
0
  6
Continuous
 62
     3
100
AcDbLine
 10
639.8909899999999
 20
761.4953
 30
0.0
 11
639.8909899999999
 21
743.4953
 31
0.0
  0
LINE
  5
182
330
36
100
AcDbEntity
  8
0
  6
Continuous
 62
     3
100
AcDbLine
 10
654.09094
 20
744.4953
 30
0.0
 11
640.69098
 21
744.4953
 31
0.0
  0
LINE
  5
183
330
36
100
AcDbEntity
  8
0
  6
Continuous
 62
     7
100
AcDbLine
 10
654.49097
 20
744.4953
 30
0.0
 11
654.09094
 21
744.4953
 31
0.0
  0
LINE
  5
184
330
36
100
AcDbEntity
  8
0
  6
Continuous
 62
     7
100
AcDbLine
 10
640.2909499999999
 20
744.4953
 30
0.0
 11
640.69098
 21
744.4953
 31
0.0
  0
LINE
  5
185
330
36
100
AcDbEntity
  8
0
  6
Continuous
 62
     7
100
AcDbLine
 10
639.6909799999999
 20
773.19525
 30
0.0
 11
643.3909899999999
 21
773.19525
 31
0.0
  0
LINE
  5
186
330
36
100
AcDbEntity
  8
0
  6
Continuous
 62
     7
100
AcDbLine
 10
639.6909799999999
 20
786.19525
 30
0.0
 11
643.3909899999999
 21
786.19525
 31
0.0
  0
LINE
  5
187
330
36
100
AcDbEntity
  8
0
  6
Continuous
 62
     7
100
AcDbLine
 10
639.8909899999999
 20
773.19525
 30
0.0
 11
639.8909899999999
 21
766.9953
 31
0.0
  0
LINE
  5
188
330
36
100
AcDbEntity
  8
0
  6
Continuous
 62
     7
100
AcDbLine
 10
639.8909899999999
 20
792.39526
 30
0.0
 11
639.8909899999999
 21
786.19525
 31
0.0
  0
LINE
  5
189
330
36
100
AcDbEntity
  8
0
  6
CENTER
 62
     4
100
AcDbLine
 10
638.1909799999999
 20
784.69525
 30
0.0
 11
638.1909799999999
 21
774.6952499999999
 31
0.0
  0
LINE
  5
18A
330
36
100
AcDbEntity
  8
0
  6
Continuous
 62
     7
100
AcDbLine
 10
643.3909899999999
 20
788.1952499999999
 30
0.0
 11
643.3909899999999
 21
787.1952499999999
 31
0.0
  0
LINE
  5
18B
330
36
100
AcDbEntity
  8
0
  6
Continuous
 62
     7
100
AcDbLine
 10
643.3909899999999
 20
770.6952499999999
 30
0.0
 11
643.3909899999999
 21
787.1952499999999
 31
0.0
  0
LINE
  5
18C
330
36
100
AcDbEntity
  8
0
  6
Continuous
 62
     7
100
AcDbLine
 10
651.3909899999999
 20
777.19525
 30
0.0
 11
659.1909799999999
 21
777.19525
 31
0.0
  0
LINE
  5
18D
330
36
100
AcDbEntity
  8
0
  6
Continuous
 62
     7
100
AcDbLine
 10
651.3909899999999
 20
782.19525
 30
0.0
 11
659.1909799999999
 21
782.19525
 31
0.0
  0
LINE
  5
18E
330
36
100
AcDbEntity
  8
0
  6
Continuous
 62
     7
100
AcDbLine
 10
651.3909899999999
 20
788.1952499999999
 30
0.0
 11
651.3909899999999
 21
787.1952499999999
 31
0.0
  0
LINE
  5
18F
330
36
100
AcDbEntity
  8
0
  6
Continuous
 62
     7
100
AcDbLine
 10
651.3909899999999
 20
770.6952499999999
 30
0.0
 11
651.3909899999999
 21
787.1952499999999
 31
0.0
  0
LINE
  5
190
330
36
100
AcDbEntity
  8
0
  6
CENTER
 62
     4
100
AcDbLine
 10
647.3909899999999
 20
761.4953
 30
0.0
 11
647.3909899999999
 21
769.4953
 31
0.0
  0
LINE
  5
191
330
36
100
AcDbEntity
  8
0
  6
Continuous
 62
     7
100
AcDbLine
 10
659.1909799999999
 20
782.19525
 30
0.0
 11
659.1909799999999
 21
777.19525
 31
0.0
  0
LINE
  5
192
330
36
100
AcDbEntity
  8
0
  6
DASHED
 62
     6
100
AcDbLine
 10
654.8909899999999
 20
786.19525
 30
0.0
 11
654.8909899999999
 21
773.19525
 31
0.0
  0
LINE
  5
193
330
36
100
AcDbEntity
  8
0
  6
Continuous
 62
     7
100
AcDbLine
 10
654.8909899999999
 20
773.19525
 30
0.0
 11
654.8909899999999
 21
766.9953
 31
0.0
  0
LINE
  5
194
330
36
100
AcDbEntity
  8
0
  6
Continuous
 62
     7
100
AcDbLine
 10
654.8909899999999
 20
792.39526
 30
0.0
 11
654.8909899999999
 21
786.19525
 31
0.0
  0
LINE
  5
195
330
36
100
AcDbEntity
  8
0
  6
CENTER
 62
     4
100
AcDbLine
 10
678.39099
 20
757.5522499999999
 30
0.0
 11
678.39099
 21
801.1063799999998
 31
0.0
  0
LINE
  5
196
330
36
100
AcDbEntity
  8
0
  6
Continuous
 62
     3
100
AcDbLine
 10
683.39435
 20
799.8952599999999
 30
0.0
 11
701.8909899999999
 21
799.8952599999999
 31
0.0
  0
LINE
  5
197
330
36
100
AcDbEntity
  8
0
  6
Continuous
 62
     3
100
AcDbLine
 10
683.39099
 20
793.89526
 30
0.0
 11
701.8909899999999
 21
793.89526
 31
0.0
  0
LINE
  5
198
330
36
100
AcDbEntity
  8
0
  6
Continuous
 62
     3
100
AcDbLine
 10
700.8909899999999
 20
799.09528
 30
0.0
 11
700.8909899999999
 21
794.69525
 31
0.0
  0
LINE
  5
199
330
36
100
AcDbEntity
  8
0
  6
Continuous
 62
     7
100
AcDbLine
 10
700.8909899999999
 20
799.4953
 30
0.0
 11
700.8909899999999
 21
799.09528
 31
0.0
  0
LINE
  5
19A
330
36
100
AcDbEntity
  8
0
  6
Continuous
 62
     7
100
AcDbLine
 10
700.8909899999999
 20
794.29529
 30
0.0
 11
700.8909899999999
 21
794.69525
 31
0.0
  0
LINE
  5
19B
330
36
100
AcDbEntity
  8
0
  6
Continuous
 62
     3
100
AcDbLine
 10
683.39099
 20
765.4953
 30
0.0
 11
701.8909899999999
 21
765.4953
 31
0.0
  0
LINE
  5
19C
330
36
100
AcDbEntity
  8
0
  6
Continuous
 62
     3
100
AcDbLine
 10
683.39435
 20
759.4953
 30
0.0
 11
701.8909899999999
 21
759.4953
 31
0.0
  0
LINE
  5
19D
330
36
100
AcDbEntity
  8
0
  6
Continuous
 62
     3
100
AcDbLine
 10
700.8909899999999
 20
764.6953099999999
 30
0.0
 11
700.8909899999999
 21
760.29529
 31
0.0
  0
LINE
  5
19E
330
36
100
AcDbEntity
  8
0
  6
Continuous
 62
     7
100
AcDbLine
 10
700.8909899999999
 20
765.0952799999999
 30
0.0
 11
700.8909899999999
 21
764.6953099999999
 31
0.0
  0
LINE
  5
19F
330
36
100
AcDbEntity
  8
0
  6
Continuous
 62
     7
100
AcDbLine
 10
700.8909899999999
 20
759.89526
 30
0.0
 11
700.8909899999999
 21
760.29529
 31
0.0
  0
LINE
  5
1A0
330
36
100
AcDbEntity
  8
0
  6
Continuous
 62
     3
100
AcDbLine
 10
683.39099
 20
793.89526
 30
0.0
 11
701.8909899999999
 21
793.89526
 31
0.0
  0
LINE
  5
1A1
330
36
100
AcDbEntity
  8
0
  6
Continuous
 62
     3
100
AcDbLine
 10
683.39099
 20
765.4953
 30
0.0
 11
701.8909899999999
 21
765.4953
 31
0.0
  0
LINE
  5
1A2
330
36
100
AcDbEntity
  8
0
  6
Continuous
 62
     3
100
AcDbLine
 10
700.8909899999999
 20
793.09528
 30
0.0
 11
700.8909899999999
 21
766.29529
 31
0.0
  0
LINE
  5
1A3
330
36
100
AcDbEntity
  8
0
  6
Continuous
 62
     7
100
AcDbLine
 10
700.8909899999999
 20
793.4953000000001
 30
0.0
 11
700.8909899999999
 21
793.09528
 31
0.0
  0
LINE
  5
1A4
330
36
100
AcDbEntity
  8
0
  6
Continuous
 62
     7
100
AcDbLine
 10
700.8909899999999
 20
765.89526
 30
0.0
 11
700.8909899999999
 21
766.29529
 31
0.0
  0
LINE
  5
1A5
330
36
100
AcDbEntity
  8
0
  6
Continuous
 62
     7
100
AcDbLine
 10
674.39099
 20
689.7249799999999
 30
0.0
 11
682.39099
 21
689.7249799999999
 31
0.0
  0
LINE
  5
1A6
330
36
100
AcDbEntity
  8
0
  6
Continuous
 62
     7
100
AcDbLine
 10
674.39099
 20
689.7249799999999
 30
0.0
 11
675.39099
 21
690.7249799999999
 31
0.0
  0
LINE
  5
1A7
330
36
100
AcDbEntity
  8
0
  6
Continuous
 62
     7
100
AcDbLine
 10
670.89099
 20
683.7249799999999
 30
0.0
 11
685.89099
 21
683.7249799999999
 31
0.0
  0
LINE
  5
1A8
330
36
100
AcDbEntity
  8
0
  6
Continuous
 62
     7
100
AcDbLine
 10
670.89099
 20
685.7249799999999
 30
0.0
 11
670.89099
 21
683.7249799999999
 31
0.0
  0
LINE
  5
1A9
330
36
100
AcDbEntity
  8
0
  6
Continuous
 62
     7
100
AcDbLine
 10
674.39099
 20
689.7249799999999
 30
0.0
 11
674.39099
 21
687.7249799999999
 31
0.0
  0
LINE
  5
1AA
330
36
100
AcDbEntity
  8
0
  6
CENTER
 62
     4
100
AcDbLine
 10
678.39099
 20
692.33545
 30
0.0
 11
678.39099
 21
681.78394
 31
0.0
  0
LINE
  5
1AB
330
36
100
AcDbEntity
  8
0
  6
Continuous
 62
     7
100
AcDbLine
 10
683.39099
 20
687.7249799999999
 30
0.0
 11
683.39099
 21
685.7249799999999
 31
0.0
  0
LINE
  5
1AC
330
36
100
AcDbEntity
  8
0
  6
Continuous
 62
     7
100
AcDbLine
 10
685.89099
 20
685.7249799999999
 30
0.0
 11
685.89099
 21
683.7249799999999
 31
0.0
  0
LINE
  5
1AD
330
36
100
AcDbEntity
  8
0
  6
Continuous
 62
     7
100
AcDbLine
 10
681.3909899999999
 20
690.7249799999999
 30
0.0
 11
682.39099
 21
689.7249799999999
 31
0.0
  0
LINE
  5
1AE
330
36
100
AcDbEntity
  8
0
  6
Continuous
 62
     7
100
AcDbLine
 10
675.39099
 20
690.7249799999999
 30
0.0
 11
681.3909899999999
 21
690.7249799999999
 31
0.0
  0
LINE
  5
1AF
330
36
100
AcDbEntity
  8
0
  6
Continuous
 62
     7
100
AcDbLine
 10
682.39099
 20
689.7249799999999
 30
0.0
 11
682.39099
 21
687.7249799999999
 31
0.0
  0
LINE
  5
1B0
330
36
100
AcDbEntity
  8
0
  6
CENTER
 62
     4
100
AcDbLine
 10
682.39099
 20
793.89526
 30
0.0
 11
674.39099
 21
793.89526
 31
0.0
  0
LINE
  5
1B1
330
36
100
AcDbEntity
  8
0
  6
CENTER
 62
     4
100
AcDbLine
 10
682.39099
 20
765.4953
 30
0.0
 11
674.39099
 21
765.4953
 31
0.0
  0
LINE
  5
1B2
330
36
100
AcDbEntity
  8
0
  6
Continuous
 62
     3
100
AcDbLine
 10
670.89099
 20
761.4953
 30
0.0
 11
670.89099
 21
743.4953
 31
0.0
  0
LINE
  5
1B3
330
36
100
AcDbEntity
  8
0
  6
Continuous
 62
     3
100
AcDbLine
 10
685.89099
 20
761.4953
 30
0.0
 11
685.89099
 21
743.4953
 31
0.0
  0
LINE
  5
1B4
330
36
100
AcDbEntity
  8
0
  6
Continuous
 62
     3
100
AcDbLine
 10
671.6909799999999
 20
744.4953
 30
0.0
 11
685.0909999999999
 21
744.4953
 31
0.0
  0
LINE
  5
1B5
330
36
100
AcDbEntity
  8
0
  6
Continuous
 62
     7
100
AcDbLine
 10
671.2909499999999
 20
744.4953
 30
0.0
 11
671.6909799999999
 21
744.4953
 31
0.0
  0
LINE
  5
1B6
330
36
100
AcDbEntity
  8
0
  6
Continuous
 62
     7
100
AcDbLine
 10
685.49097
 20
744.4953
 30
0.0
 11
685.0909999999999
 21
744.4953
 31
0.0
  0
LINE
  5
1B7
330
36
100
AcDbEntity
  8
0
  6
DASHED
 62
     6
100
AcDbLine
 10
670.89099
 20
786.19525
 30
0.0
 11
670.89099
 21
773.19525
 31
0.0
  0
LINE
  5
1B8
330
36
100
AcDbEntity
  8
0
  6
Continuous
 62
     7
100
AcDbLine
 10
670.89099
 20
792.39526
 30
0.0
 11
670.89099
 21
786.19525
 31
0.0
  0
LINE
  5
1B9
330
36
100
AcDbEntity
  8
0
  6
Continuous
 62
     7
100
AcDbLine
 10
670.89099
 20
773.19525
 30
0.0
 11
670.89099
 21
766.9953
 31
0.0
  0
LINE
  5
1BA
330
36
100
AcDbEntity
  8
0
  6
Continuous
 62
     7
100
AcDbLine
 10
685.89099
 20
792.39526
 30
0.0
 11
685.89099
 21
766.9953
 31
0.0
  0
LINE
  5
1BB
330
36
100
AcDbEntity
  8
0
  6
Continuous
 62
     7
100
AcDbLine
 10
697.81635
 20
625.13446
 30
0.0
 11
697.81635
 21
595.1344599999999
 31
0.0
  0
LINE
  5
1BC
330
36
100
AcDbEntity
  8
0
  6
Continuous
 62
     7
100
AcDbLine
 10
713.81635
 20
625.13446
 30
0.0
 11
713.81635
 21
595.1344599999999
 31
0.0
  0
LINE
  5
1BD
330
36
100
AcDbEntity
  8
0
  6
Continuous
 62
     7
100
AcDbLine
 10
729.8163500000001
 20
625.13446
 30
0.0
 11
729.8163500000001
 21
595.1344599999999
 31
0.0
  0
LINE
  5
1BE
330
36
100
AcDbEntity
  8
0
  6
Continuous
 62
     7
100
AcDbLine
 10
745.81635
 20
625.13446
 30
0.0
 11
745.81635
 21
595.1344599999999
 31
0.0
  0
LINE
  5
1BF
330
36
100
AcDbEntity
  8
0
  6
Continuous
 62
     7
100
AcDbLine
 10
761.81635
 20
625.13446
 30
0.0
 11
761.81635
 21
595.1344599999999
 31
0.0
  0
LINE
  5
1C0
330
36
100
AcDbEntity
  8
0
  6
Continuous
 62
     7
100
AcDbLine
 10
777.81635
 20
625.13446
 30
0.0
 11
777.81635
 21
595.1344599999999
 31
0.0
  0
LINE
  5
1C1
330
36
100
AcDbEntity
  8
0
  6
Continuous
 62
     7
100
AcDbLine
 10
817.81635
 20
625.13446
 30
0.0
 11
817.81635
 21
595.1344599999999
 31
0.0
  0
LINE
  5
1C2
330
36
100
AcDbEntity
  8
0
  6
Continuous
 62
     3
100
AcDbLine
 10
677.10181
 20
792.11261
 30
0.0
 11
679.6801799999999
 21
795.6779199999999
 31
0.0
  0
LINE
  5
1C3
330
36
100
AcDbEntity
  8
0
  6
Continuous
 62
     3
100
AcDbLine
 10
680.1489899999999
 20
796.32617
 30
0.0
 11
688.9523299999999
 21
808.4990799999999
 31
0.0
  0
LINE
  5
1C4
330
36
100
AcDbEntity
  8
0
  6
Continuous
 62
     3
100
AcDbLine
 10
688.95227
 20
808.4990799999999
 30
0.0
 11
692.6482499999999
 21
808.4990799999999
 31
0.0
  0
LINE
  5
1C5
330
36
100
AcDbEntity
  8
0
  6
Continuous
 62
     7
100
AcDbLine
 10
676.86737
 20
791.78851
 30
0.0
 11
677.10181
 21
792.11261
 31
0.0
  0
LINE
  5
1C6
330
36
100
AcDbEntity
  8
0
  6
Continuous
 62
     7
100
AcDbLine
 10
679.9146099999999
 20
796.0020799999999
 30
0.0
 11
679.6801799999999
 21
795.6779199999999
 31
0.0
  0
LINE
  5
1C7
330
36
100
AcDbEntity
  8
0
  6
Continuous
 62
     7
100
AcDbLine
 10
465.0218799999999
 20
551.1169399999999
 30
0.0
 11
885.02191
 21
551.1169399999999
 31
0.0
  0
LINE
  5
1C8
330
36
100
AcDbEntity
  8
0
  6
Continuous
 62
     7
100
AcDbLine
 10
465.0218799999999
 20
848.11694
 30
0.0
 11
465.0218799999999
 21
551.1169399999999
 31
0.0
  0
LINE
  5
1C9
330
36
100
AcDbEntity
  8
0
  6
Continuous
 62
     7
100
AcDbLine
 10
865.52191
 20
563.11694
 30
0.0
 11
865.52191
 21
836.1169399999999
 31
0.0
  0
LINE
  5
1CA
330
36
100
AcDbEntity
  8
0
  6
Continuous
 62
     7
100
AcDbLine
 10
484.5218799999999
 20
740.11694
 30
0.0
 11
484.5218799999999
 21
563.86694
 31
0.0
  0
LINE
  5
1CB
330
36
100
AcDbEntity
  8
0
  6
Continuous
 62
     7
100
AcDbLine
 10
865.52191
 20
836.1169399999999
 30
0.0
 11
594.5219099999999
 21
836.1169399999999
 31
0.0
  0
LINE
  5
1CC
330
36
100
AcDbEntity
  8
0
  6
Continuous
 62
     7
100
AcDbLine
 10
484.5218799999999
 20
563.11694
 30
0.0
 11
865.52191
 21
563.11694
 31
0.0
  0
LINE
  5
1CD
330
36
100
AcDbEntity
  8
0
  6
Continuous
 62
     7
100
AcDbLine
 10
885.02191
 20
848.11694
 30
0.0
 11
885.02191
 21
551.1169399999999
 31
0.0
  0
LINE
  5
1CE
330
36
100
AcDbEntity
  8
0
  6
Continuous
 62
     7
100
AcDbLine
 10
465.0218799999999
 20
848.11694
 30
0.0
 11
885.02191
 21
848.11694
 31
0.0
  0
LINE
  5
1CF
330
36
100
AcDbEntity
  8
0
  6
Continuous
 62
     7
100
AcDbLine
 10
484.5218799999999
 20
836.1169399999999
 30
0.0
 11
594.5219099999999
 21
836.1169399999999
 31
0.0
  0
LINE
  5
1D0
330
36
100
AcDbEntity
  8
0
  6
Continuous
 62
     7
100
AcDbLine
 10
484.5218799999999
 20
836.1169399999999
 30
0.0
 11
484.5218799999999
 21
740.11694
 31
0.0
  0
LINE
  5
1D1
330
36
100
AcDbEntity
  8
0
  6
Continuous
 62
     7
100
AcDbLine
 10
504.5218799999999
 20
836.1169399999999
 30
0.0
 11
504.5218799999999
 21
740.11694
 31
0.0
  0
LINE
  5
1D2
330
36
100
AcDbEntity
  8
0
  6
Continuous
 62
     7
100
AcDbLine
 10
484.5218799999999
 20
828.1169399999999
 30
0.0
 11
594.5219099999999
 21
828.1169399999999
 31
0.0
  0
LINE
  5
1D3
330
36
100
AcDbEntity
  8
0
  6
Continuous
 62
     7
100
AcDbLine
 10
484.5218799999999
 20
820.1169399999999
 30
0.0
 11
594.5219099999999
 21
820.1169399999999
 31
0.0
  0
LINE
  5
1D4
330
36
100
AcDbEntity
  8
0
  6
Continuous
 62
     7
100
AcDbLine
 10
484.5218799999999
 20
812.1169399999999
 30
0.0
 11
594.5219099999999
 21
812.1169399999999
 31
0.0
  0
LINE
  5
1D5
330
36
100
AcDbEntity
  8
0
  6
Continuous
 62
     7
100
AcDbLine
 10
484.5218799999999
 20
804.1169399999999
 30
0.0
 11
594.5219099999999
 21
804.1169399999999
 31
0.0
  0
LINE
  5
1D6
330
36
100
AcDbEntity
  8
0
  6
Continuous
 62
     7
100
AcDbLine
 10
504.5218799999999
 20
780.11694
 30
0.0
 11
594.5219099999999
 21
780.11694
 31
0.0
  0
LINE
  5
1D7
330
36
100
AcDbEntity
  8
0
  6
Continuous
 62
     7
100
AcDbLine
 10
504.5218799999999
 20
772.1169399999999
 30
0.0
 11
594.5219099999999
 21
772.1169399999999
 31
0.0
  0
LINE
  5
1D8
330
36
100
AcDbEntity
  8
0
  6
Continuous
 62
     7
100
AcDbLine
 10
484.5218799999999
 20
764.1169399999999
 30
0.0
 11
594.5219099999999
 21
764.1169399999999
 31
0.0
  0
LINE
  5
1D9
330
36
100
AcDbEntity
  8
0
  6
Continuous
 62
     7
100
AcDbLine
 10
504.5218799999999
 20
756.1169399999999
 30
0.0
 11
594.5219099999999
 21
756.1169399999999
 31
0.0
  0
LINE
  5
1DA
330
36
100
AcDbEntity
  8
0
  6
Continuous
 62
     7
100
AcDbLine
 10
504.5218799999999
 20
748.1169399999999
 30
0.0
 11
594.5219099999999
 21
748.1169399999999
 31
0.0
  0
LINE
  5
1DB
330
36
100
AcDbEntity
  8
0
  6
Continuous
 62
     7
100
AcDbLine
 10
484.5218799999999
 20
740.11694
 30
0.0
 11
594.5219099999999
 21
740.11694
 31
0.0
  0
LINE
  5
1DC
330
36
100
AcDbEntity
  8
0
  6
Continuous
 62
     7
100
AcDbLine
 10
484.5218799999999
 20
836.1169399999999
 30
0.0
 11
484.5218799999999
 21
740.11694
 31
0.0
  0
LINE
  5
1DD
330
36
100
AcDbEntity
  8
0
  6
Continuous
 62
     7
100
AcDbLine
 10
484.5218799999999
 20
836.1169399999999
 30
0.0
 11
594.5219099999999
 21
836.1169399999999
 31
0.0
  0
LINE
  5
1DE
330
36
100
AcDbEntity
  8
0
  6
Continuous
 62
     7
100
AcDbLine
 10
594.5219099999999
 20
836.1169399999999
 30
0.0
 11
594.5219099999999
 21
740.11694
 31
0.0
  0
LINE
  5
1DF
330
36
100
AcDbEntity
  8
0
  6
Continuous
 62
     7
100
AcDbLine
 10
484.5218799999999
 20
796.11694
 30
0.0
 11
594.5219099999999
 21
796.11694
 31
0.0
  0
LINE
  5
1E0
330
36
100
AcDbEntity
  8
0
  6
Continuous
 62
     7
100
AcDbLine
 10
484.5218799999999
 20
788.11694
 30
0.0
 11
594.5219099999999
 21
788.11694
 31
0.0
  0
LINE
  5
1E1
330
36
100
AcDbEntity
  8
0
  6
Continuous
 62
     7
100
AcDbLine
 10
504.5218799999999
 20
780.11694
 30
0.0
 11
594.5219099999999
 21
780.11694
 31
0.0
  0
LINE
  5
1E2
330
36
100
AcDbEntity
  8
0
  6
Continuous
 62
     3
100
AcDbLine
 10
632.19098
 20
687.7249799999999
 30
0.0
 11
622.1909799999999
 21
687.7249799999999
 31
0.0
  0
LINE
  5
1E5
330
36
100
AcDbEntity
  8
0
  6
Continuous
 62
     7
100
AcDbLine
 10
623.1909799999999
 20
688.12494
 30
0.0
 11
623.1909799999999
 21
688.5249599999999
 31
0.0
  0
LINE
  5
1E7
330
36
100
AcDbEntity
  8
0
  6
Continuous
 62
     7
100
AcDbLine
 10
833.81635
 20
625.13446
 30
0.0
 11
833.81635
 21
595.1344599999999
 31
0.0
  0
LINE
  5
1E8
330
36
100
AcDbEntity
  8
0
  6
Continuous
 62
     7
100
AcDbLine
 10
817.81635
 20
625.13446
 30
0.0
 11
817.81635
 21
595.1344599999999
 31
0.0
  0
ARC
  5
1E9
330
36
100
AcDbEntity
  8
0
  6
Continuous
 62
     7
100
AcDbCircle
 10
647.3909899999999
 20
792.39526
 30
0.0
 40
7.5
100
AcDbArc
 50
0.0
 51
180.0
  0
CIRCLE
  5
1EA
330
36
100
AcDbEntity
  8
0
  6
Continuous
 62
     7
100
AcDbCircle
 10
647.3909899999999
 20
793.89526
 30
0.0
 40
3.0
  0
ARC
  5
1EB
330
36
100
AcDbEntity
  8
0
  6
Continuous
 62
     7
100
AcDbCircle
 10
639.6909799999999
 20
779.6952499999999
 30
0.0
 40
6.5
100
AcDbArc
 50
90.0
 51
270.0
  0
ARC
  5
1EC
330
36
100
AcDbEntity
  8
0
  6
Continuous
 62
     7
100
AcDbCircle
 10
647.3909899999999
 20
766.9953
 30
0.0
 40
7.5
100
AcDbArc
 50
180.0
 51
0.0
  0
CIRCLE
  5
1ED
330
36
100
AcDbEntity
  8
0
  6
Continuous
 62
     7
100
AcDbCircle
 10
647.3909899999999
 20
779.6952499999999
 30
0.0
 40
4.0
  0
CIRCLE
  5
1EE
330
36
100
AcDbEntity
  8
0
  6
Continuous
 62
     7
100
AcDbCircle
 10
647.3909899999999
 20
765.4953
 30
0.0
 40
1.5
  0
CIRCLE
  5
1EF
330
36
100
AcDbEntity
  8
0
  6
Continuous
 62
     7
100
AcDbCircle
 10
647.3909899999999
 20
765.4953
 30
0.0
 40
3.0
  0
CIRCLE
  5
1F0
330
36
100
AcDbEntity
  8
0
  6
Continuous
 62
     7
100
AcDbCircle
 10
647.3909899999999
 20
793.89526
 30
0.0
 40
1.5
  0
CIRCLE
  5
1F1
330
36
100
AcDbEntity
  8
0
  6
Continuous
 62
     7
100
AcDbCircle
 10
638.1909799999999
 20
779.6952499999999
 30
0.0
 40
4.0
  0
ARC
  5
1F2
330
36
100
AcDbEntity
  8
0
  6
Continuous
 62
     7
100
AcDbCircle
 10
678.39099
 20
792.39526
 30
0.0
 40
7.5
100
AcDbArc
 50
0.0
 51
180.0
  0
CIRCLE
  5
1F3
330
36
100
AcDbEntity
  8
0
  6
Continuous
 62
     7
100
AcDbCircle
 10
678.39099
 20
793.89526
 30
0.0
 40
3.0
  0
ARC
  5
1F4
330
36
100
AcDbEntity
  8
0
  6
Continuous
 62
     7
100
AcDbCircle
 10
676.8909899999999
 20
779.6952499999999
 30
0.0
 40
6.5
100
AcDbArc
 50
270.0
 51
90.0
  0
ARC
  5
1F5
330
36
100
AcDbEntity
  8
0
  6
Continuous
 62
     7
100
AcDbCircle
 10
678.39099
 20
766.9953
 30
0.0
 40
7.5
100
AcDbArc
 50
180.0
 51
0.0
  0
CIRCLE
  5
1F6
330
36
100
AcDbEntity
  8
0
  6
Continuous
 62
     7
100
AcDbCircle
 10
678.39099
 20
779.6952499999999
 30
0.0
 40
4.0
  0
CIRCLE
  5
1F7
330
36
100
AcDbEntity
  8
0
  6
Continuous
 62
     7
100
AcDbCircle
 10
678.39099
 20
779.6952499999999
 30
0.0
 40
3.0
  0
CIRCLE
  5
1F8
330
36
100
AcDbEntity
  8
0
  6
Continuous
 62
     7
100
AcDbCircle
 10
678.39099
 20
793.89526
 30
0.0
 40
1.5
  0
CIRCLE
  5
1F9
330
36
100
AcDbEntity
  8
0
  6
Continuous
 62
     7
100
AcDbCircle
 10
678.39099
 20
765.4953
 30
0.0
 40
1.5
  0
CIRCLE
  5
1FA
330
36
100
AcDbEntity
  8
0
  6
Continuous
 62
     7
100
AcDbCircle
 10
678.39099
 20
765.4953
 30
0.0
 40
3.0
  0
ARC
  5
1FB
330
36
100
AcDbEntity
  8
0
  6
Continuous
 62
     7
100
AcDbCircle
 10
647.3909899999999
 20
784.6424599999999
 30
0.0
 40
14.509444
100
AcDbArc
 50
253.9973299999999
 51
286.00267
  0
TEXT
  5
1FC
330
36
100
AcDbEntity
  8
0
  6
Continuous
 62
     2
100
AcDbText
 10
781.2132799999999
 20
600.1344699999999
 30
0.0
 40
3.2
  1
%%C３．７×%%C７．２サラ
 41
0.60999998
100
AcDbText
  0
TEXT
  5
1FD
330
36
100
AcDbEntity
  8
0
  6
Continuous
 62
     2
100
AcDbText
 10
781.2132799999999
 20
610.1344699999999
 30
0.0
 40
3.2
  1
%%C３．２×%%C６．２サラ
 41
0.60999998
100
AcDbText
  0
TEXT
  5
1FE
330
36
100
AcDbEntity
  8
0
  6
Continuous
 62
     3
100
AcDbText
 10
714.3909499999999
 20
778.6285799999999
 30
0.0
 40
3.2
  1
F
 50
90.00000300000001
100
AcDbText
  0
TEXT
  5
1FF
330
36
100
AcDbEntity
  8
0
  6
Continuous
 62
     2
100
AcDbText
 10
621.4449
 20
600.1344699999999
 30
0.0
 40
3.2
  1
ＤＬ－１４８Ｓ－２
 41
0.60999998
100
AcDbText
  0
TEXT
  5
200
330
36
100
AcDbEntity
  8
0
  6
Continuous
 62
     2
100
AcDbText
 10
621.4449
 20
610.1344699999999
 30
0.0
 40
3.2
  1
ＤＬ－１４８Ｓ－１
 41
0.60999998
100
AcDbText
  0
TEXT
  5
201
330
36
100
AcDbEntity
  8
0
  6
Continuous
 62
     2
100
AcDbText
 10
655.6449399999999
 20
600.1344699999999
 30
0.0
 40
3.2
  1
１６
 41
0.61
100
AcDbText
  0
TEXT
  5
202
330
36
100
AcDbEntity
  8
0
  6
Continuous
 62
     2
100
AcDbText
 10
655.6449399999999
 20
610.1344699999999
 30
0.0
 40
3.2
  1
１３
 41
0.61
100
AcDbText
  0
TEXT
  5
203
330
36
100
AcDbEntity
  8
0
  6
Continuous
 62
     2
100
AcDbText
 10
632.64494
 20
620.1344699999999
 30
0.0
 40
3.2
  1
品番
 41
0.61
100
AcDbText
  0
TEXT
  5
204
330
36
100
AcDbEntity
  8
0
  6
Continuous
 62
     2
100
AcDbText
 10
657.24492
 20
620.1344699999999
 30
0.0
 40
3.2
  1
Ａ
 41
0.6100000100000001
100
AcDbText
  0
TEXT
  5
205
330
36
100
AcDbEntity
  8
0
  6
Continuous
 62
     2
100
AcDbText
 10
671.64494
 20
600.1344699999999
 30
0.0
 40
3.2
  1
６２
 41
0.61
100
AcDbText
  0
TEXT
  5
206
330
36
100
AcDbEntity
  8
0
  6
Continuous
 62
     2
100
AcDbText
 10
671.64494
 20
610.1344699999999
 30
0.0
 40
3.2
  1
４６
 41
0.61
100
AcDbText
  0
TEXT
  5
207
330
36
100
AcDbEntity
  8
0
  6
Continuous
 62
     2
100
AcDbText
 10
673.2449199999999
 20
620.1344699999999
 30
0.0
 40
3.2
  1
Ｂ
 41
0.6100000100000001
100
AcDbText
  0
TEXT
  5
208
330
36
100
AcDbEntity
  8
0
  6
Continuous
 62
     3
100
AcDbText
 10
661.8243200000001
 20
746.01755
 30
0.0
 40
3.2
  1
D
100
AcDbText
  0
TEXT
  5
209
330
36
100
AcDbEntity
  8
0
  6
Continuous
 62
     3
100
AcDbText
 10
654.72429
 20
730.9952799999999
 30
0.0
 40
3.2
  1
B
100
AcDbText
  0
TEXT
  5
20A
330
36
100
AcDbEntity
  8
0
  6
Continuous
 62
     3
100
AcDbText
 10
616.691
 20
778.6285799999999
 30
0.0
 40
3.2
  1
A
 50
90.00000300000001
100
AcDbText
  0
TEXT
  5
20B
330
36
100
AcDbEntity
  8
0
  6
Continuous
 62
     3
100
AcDbText
 10
621.69064
 20
678.78154
 30
0.0
 40
3.2
  1
J
 50
90.00000300000001
100
AcDbText
  0
TEXT
  5
20C
330
36
100
AcDbEntity
  8
0
  6
Continuous
 62
     3
100
AcDbText
 10
621.69064
 20
685.6583099999999
 30
0.0
 40
3.2
  1
J
 50
90.00000300000001
100
AcDbText
  0
TEXT
  5
20D
330
36
100
AcDbEntity
  8
0
  6
Continuous
 62
     3
100
AcDbText
 10
646.32432
 20
745.9952799999999
 30
0.0
 40
3.2
  1
C
100
AcDbText
  0
TEXT
  5
20E
330
36
100
AcDbEntity
  8
0
  6
Continuous
 62
     3
100
AcDbText
 10
699.39095
 20
795.8286000000001
 30
0.0
 40
3.2
  1
H
 50
90.00000300000001
100
AcDbText
  0
TEXT
  5
20F
330
36
100
AcDbEntity
  8
0
  6
Continuous
 62
     3
100
AcDbText
 10
699.39095
 20
761.4286299999999
 30
0.0
 40
3.2
  1
H
 50
90.00000300000001
100
AcDbText
  0
TEXT
  5
210
330
36
100
AcDbEntity
  8
0
  6
Continuous
 62
     3
100
AcDbText
 10
699.3852799999999
 20
778.6285799999999
 30
0.0
 40
3.2
  1
G
 50
90.00000300000001
100
AcDbText
  0
TEXT
  5
211
330
36
100
AcDbEntity
  8
0
  6
Continuous
 62
     3
100
AcDbText
 10
674.52934
 20
745.9952799999999
 30
0.0
 40
3.2
  1
E
100
AcDbText
  0
TEXT
  5
212
330
36
100
AcDbEntity
  8
0
  6
Continuous
 62
     2
100
AcDbText
 10
735.64494
 20
600.1344699999999
 30
0.0
 40
3.2
  1
４９
 41
0.61
100
AcDbText
  0
TEXT
  5
213
330
36
100
AcDbEntity
  8
0
  6
Continuous
 62
     2
100
AcDbText
 10
735.64494
 20
610.1344699999999
 30
0.0
 40
3.2
  1
４０
 41
0.61
100
AcDbText
  0
TEXT
  5
214
330
36
100
AcDbEntity
  8
0
  6
Continuous
 62
     2
100
AcDbText
 10
687.64494
 20
600.1344699999999
 30
0.0
 40
3.2
  1
２０
 41
0.61
100
AcDbText
  0
TEXT
  5
215
330
36
100
AcDbEntity
  8
0
  6
Continuous
 62
     2
100
AcDbText
 10
687.64494
 20
610.1344699999999
 30
0.0
 40
3.2
  1
１５
 41
0.61
100
AcDbText
  0
TEXT
  5
216
330
36
100
AcDbEntity
  8
0
  6
Continuous
 62
     2
100
AcDbText
 10
689.2449199999999
 20
620.1344699999999
 30
0.0
 40
3.2
  1
Ｃ
 41
0.6100000100000001
100
AcDbText
  0
TEXT
  5
217
330
36
100
AcDbEntity
  8
0
  6
Continuous
 62
     2
100
AcDbText
 10
703.64494
 20
600.1344699999999
 30
0.0
 40
3.2
  1
２０
 41
0.61
100
AcDbText
  0
TEXT
  5
218
330
36
100
AcDbEntity
  8
0
  6
Continuous
 62
     2
100
AcDbText
 10
703.64494
 20
610.1344699999999
 30
0.0
 40
3.2
  1
１５
 41
0.61
100
AcDbText
  0
TEXT
  5
219
330
36
100
AcDbEntity
  8
0
  6
Continuous
 62
     2
100
AcDbText
 10
705.2449199999999
 20
620.1344699999999
 30
0.0
 40
3.2
  1
Ｄ
 41
0.6100000100000001
100
AcDbText
  0
TEXT
  5
21A
330
36
100
AcDbEntity
  8
0
  6
Continuous
 62
     2
100
AcDbText
 10
719.64494
 20
600.1344699999999
 30
0.0
 40
3.2
  1
２０
 41
0.61
100
AcDbText
  0
TEXT
  5
21B
330
36
100
AcDbEntity
  8
0
  6
Continuous
 62
     2
100
AcDbText
 10
719.64494
 20
610.1344699999999
 30
0.0
 40
3.2
  1
１５
 41
0.61
100
AcDbText
  0
TEXT
  5
21C
330
36
100
AcDbEntity
  8
0
  6
Continuous
 62
     2
100
AcDbText
 10
721.24492
 20
620.1344699999999
 30
0.0
 40
3.2
  1
Ｅ
 41
0.6100000100000001
100
AcDbText
  0
TEXT
  5
21D
330
36
100
AcDbEntity
  8
0
  6
Continuous
 62
     2
100
AcDbText
 10
737.24492
 20
620.1344699999999
 30
0.0
 40
3.2
  1
Ｆ
 41
0.6100000100000001
100
AcDbText
  0
TEXT
  5
21E
330
36
100
AcDbEntity
  8
0
  6
Continuous
 62
     2
100
AcDbText
 10
751.6449399999999
 20
600.1344699999999
 30
0.0
 40
3.2
  1
３５
 41
0.61
100
AcDbText
  0
TEXT
  5
21F
330
36
100
AcDbEntity
  8
0
  6
Continuous
 62
     2
100
AcDbText
 10
751.6449399999999
 20
610.1344699999999
 30
0.0
 40
3.2
  1
２８
 41
0.61
100
AcDbText
  0
TEXT
  5
220
330
36
100
AcDbEntity
  8
0
  6
Continuous
 62
     2
100
AcDbText
 10
753.24492
 20
620.1344699999999
 30
0.0
 40
3.2
  1
Ｇ
 41
0.6100000100000001
100
AcDbText
  0
TEXT
  5
221
330
36
100
AcDbEntity
  8
0
  6
Continuous
 62
     2
100
AcDbText
 10
769.2449199999999
 20
600.1344699999999
 30
0.0
 40
3.2
  1
７
 41
0.6100000100000001
100
AcDbText
  0
TEXT
  5
222
330
36
100
AcDbEntity
  8
0
  6
Continuous
 62
     2
100
AcDbText
 10
769.2449199999999
 20
610.1344699999999
 30
0.0
 40
3.2
  1
６
 41
0.6100000100000001
100
AcDbText
  0
TEXT
  5
223
330
36
100
AcDbEntity
  8
0
  6
Continuous
 62
     2
100
AcDbText
 10
769.2449199999999
 20
620.1344699999999
 30
0.0
 40
3.2
  1
Ｈ
 41
0.6100000100000001
100
AcDbText
  0
TEXT
  5
224
330
36
100
AcDbEntity
  8
0
  6
Continuous
 62
     2
100
AcDbText
 10
797.2449199999999
 20
620.1344699999999
 30
0.0
 40
3.2
  1
Ｉ
 41
0.6100000100000001
100
AcDbText
  0
TEXT
  5
225
330
36
100
AcDbEntity
  8
0
  6
Continuous
 62
     3
100
AcDbText
 10
690.2809599999999
 20
809.9990599999999
 30
0.0
 40
3.2
  1
Ｉ
100
AcDbText
  0
TEXT
  5
22A
330
36
100
AcDbEntity
  8
0
  6
Continuous
 62
     7
100
AcDbText
 10
490.75039
 20
832.1168899999999
 30
0.0
 40
3.2
  1
品　名
 41
0.60999997
100
AcDbText
  0
TEXT
  5
22B
330
36
100
AcDbEntity
  8
0
  6
Continuous
 62
     7
100
AcDbText
 10
490.75039
 20
824.1168899999999
 30
0.0
 40
3.2
  1
品　番
 41
0.60999997
100
AcDbText
  0
TEXT
  5
22C
330
36
100
AcDbEntity
  8
0
  6
Continuous
 62
     7
100
AcDbText
 10
490.75039
 20
816.1168899999999
 30
0.0
 40
3.2
  1
材　質
 41
0.60999997
100
AcDbText
  0
TEXT
  5
22D
330
36
100
AcDbEntity
  8
0
  6
Continuous
 62
     7
100
AcDbText
 10
490.75039
 20
808.1168899999999
 30
0.0
 40
3.2
  1
仕上げ
 41
0.60999997
100
AcDbText
  0
TEXT
  5
22E
330
36
100
AcDbEntity
  8
0
  6
Continuous
 62
     7
100
AcDbText
 10
487.5503799999999
 20
784.11689
 30
0.0
 40
3.2
  1
セットビス
 41
0.6099999900000001
100
AcDbText
  0
TEXT
  5
22F
330
36
100
AcDbEntity
  8
0
  6
Continuous
 62
     7
100
AcDbText
 10
492.3503799999999
 20
760.11689
 30
0.0
 40
3.2
  1
備考
 41
0.61
100
AcDbText
  0
TEXT
  5
230
330
36
100
AcDbEntity
  8
0
  6
Continuous
 62
     7
100
AcDbText
 10
490.75039
 20
800.1168899999999
 30
0.0
 40
3.2
  1
定　尺
 41
0.60999997
100
AcDbText
  0
TEXT
  5
231
330
36
100
AcDbEntity
  8
0
  6
Continuous
 62
     7
100
AcDbText
 10
489.1503799999999
 20
792.11689
 30
0.0
 40
3.2
  1
左右勝手
 41
0.60999998
100
AcDbText
  0
TEXT
  5
232
330
36
100
AcDbEntity
  8
0
  6
Continuous
 62
     7
100
AcDbText
 10
507.95038
 20
830.5169199999999
 30
0.0
 40
3.2
  1
打掛
 41
0.74999999
100
AcDbText
  0
TEXT
  5
233
330
36
100
AcDbEntity
  8
0
  6
Continuous
 62
     7
100
AcDbText
 10
507.95038
 20
822.5169199999999
 30
0.0
 40
3.2
  1
ＤＬ－１４８Ｓ
 41
0.75000003
100
AcDbText
  0
TEXT
  5
234
330
36
100
AcDbEntity
  8
0
  6
Continuous
 62
     7
100
AcDbText
 10
507.9504
 20
814.5169199999999
 30
0.0
 40
3.2
  1
ステンレス
 41
0.74999999
100
AcDbText
  0
TEXT
  5
235
330
36
100
AcDbEntity
  8
0
  6
Continuous
 62
     7
100
AcDbText
 10
507.95037
 20
806.5169199999999
 30
0.0
 40
3.2
  1
電解研磨
 41
0.7499999800000001
100
AcDbText
  0
TEXT
  5
236
330
36
100
AcDbEntity
  8
0
  6
Continuous
 62
     7
100
AcDbText
 10
507.95038
 20
790.51692
 30
0.0
 40
3.2
  1
無し
 41
0.74999999
100
AcDbText
  0
TEXT
  5
238
330
36
100
AcDbEntity
  8
0
  6
Continuous
 62
     2
100
AcDbText
 10
825.2449199999999
 20
620.1344699999999
 30
0.0
 40
3.2
  1
Ｊ
 41
0.6100000100000001
100
AcDbText
  0
TEXT
  5
239
330
36
100
AcDbEntity
  8
0
  6
Continuous
 62
     2
100
AcDbText
 10
825.2860923734788
 20
610.1344699999999
 30
0.0
 40
3.2
  1
2
 41
0.61
100
AcDbText
  0
TEXT
  5
23A
330
36
100
AcDbEntity
  8
0
  6
Continuous
 62
     2
100
AcDbText
 10
825.1520419515355
 20
600.1344699999999
 30
0.0
 40
3.2
  1
2
 41
0.61
100
AcDbText
  0
INSERT
  5
23B
330
36
100
AcDbEntity
  8
0
  6
Continuous
 62
     7
100
AcDbBlockReference
  2
KOZU0001
 10
715.89099
 20
799.8952599999999
 30
0.0
  0
INSERT
  5
23C
330
36
100
AcDbEntity
  8
0
  6
Continuous
 62
     7
100
AcDbBlockReference
  2
KOZU0002
 10
715.89099
 20
759.4953
 30
0.0
  0
INSERT
  5
23D
330
36
100
AcDbEntity
  8
0
  6
Continuous
 62
     7
100
AcDbBlockReference
  2
KOZU0003
 10
654.8909899999999
 20
744.4953
 30
0.0
  0
INSERT
  5
23E
330
36
100
AcDbEntity
  8
0
  6
Continuous
 62
     7
100
AcDbBlockReference
  2
KOZU0004
 10
670.89099
 20
744.4953
 30
0.0
  0
INSERT
  5
23F
330
36
100
AcDbEntity
  8
0
  6
Continuous
 62
     7
100
AcDbBlockReference
  2
KOZU0005
 10
678.39099
 20
729.4953
 30
0.0
  0
INSERT
  5
240
330
36
100
AcDbEntity
  8
0
  6
Continuous
 62
     7
100
AcDbBlockReference
  2
KOZU0006
 10
633.19098
 20
729.4953
 30
0.0
  0
INSERT
  5
241
330
36
100
AcDbEntity
  8
0
  6
Continuous
 62
     7
100
AcDbBlockReference
  2
KOZU0007
 10
618.1909799999999
 20
786.19525
 30
0.0
  0
INSERT
  5
242
330
36
100
AcDbEntity
  8
0
  6
Continuous
 62
     7
100
AcDbBlockReference
  2
KOZU0008
 10
618.1909799999999
 20
773.19525
 30
0.0
  0
INSERT
  5
243
330
36
100
AcDbEntity
  8
0
  6
Continuous
 62
     7
100
AcDbBlockReference
  2
KOZU0009
 10
623.1909799999999
 20
685.7249799999999
 30
0.0
  0
INSERT
  5
244
330
36
100
AcDbEntity
  8
0
  6
Continuous
 62
     7
100
AcDbBlockReference
  2
KOZU0010
 10
623.1909799999999
 20
683.7249799999999
 30
0.0
  0
INSERT
  5
245
330
36
100
AcDbEntity
  8
0
  6
Continuous
 62
     7
100
AcDbBlockReference
  2
KOZU0011
 10
623.1909799999999
 20
687.7249799999999
 30
0.0
  0
INSERT
  5
246
330
36
100
AcDbEntity
  8
0
  6
Continuous
 62
     7
100
AcDbBlockReference
  2
KOZU0012
 10
623.1909799999999
 20
685.7249799999999
 30
0.0
  0
INSERT
  5
247
330
36
100
AcDbEntity
  8
0
  6
Continuous
 62
     7
100
AcDbBlockReference
  2
KOZU0013
 10
654.8909899999999
 20
744.4953
 30
0.0
  0
INSERT
  5
248
330
36
100
AcDbEntity
  8
0
  6
Continuous
 62
     7
100
AcDbBlockReference
  2
KOZU0014
 10
639.8909899999999
 20
744.4953
 30
0.0
  0
INSERT
  5
249
330
36
100
AcDbEntity
  8
0
  6
Continuous
 62
     7
100
AcDbBlockReference
  2
KOZU0015
 10
700.8909899999999
 20
799.8952599999999
 30
0.0
  0
INSERT
  5
24A
330
36
100
AcDbEntity
  8
0
  6
Continuous
 62
     7
100
AcDbBlockReference
  2
KOZU0016
 10
700.8909899999999
 20
793.89526
 30
0.0
  0
INSERT
  5
24B
330
36
100
AcDbEntity
  8
0
  6
Continuous
 62
     7
100
AcDbBlockReference
  2
KOZU0017
 10
700.8909899999999
 20
765.4953
 30
0.0
  0
INSERT
  5
24C
330
36
100
AcDbEntity
  8
0
  6
Continuous
 62
     7
100
AcDbBlockReference
  2
KOZU0018
 10
700.8909899999999
 20
759.4953
 30
0.0
  0
INSERT
  5
24D
330
36
100
AcDbEntity
  8
0
  6
Continuous
 62
     7
100
AcDbBlockReference
  2
KOZU0019
 10
700.8909899999999
 20
793.89526
 30
0.0
  0
INSERT
  5
24E
330
36
100
AcDbEntity
  8
0
  6
Continuous
 62
     7
100
AcDbBlockReference
  2
KOZU0020
 10
700.8909899999999
 20
765.4953
 30
0.0
  0
INSERT
  5
24F
330
36
100
AcDbEntity
  8
0
  6
Continuous
 62
     7
100
AcDbBlockReference
  2
KOZU0021
 10
670.89099
 20
744.4953
 30
0.0
  0
INSERT
  5
250
330
36
100
AcDbEntity
  8
0
  6
Continuous
 62
     7
100
AcDbBlockReference
  2
KOZU0022
 10
685.89099
 20
744.4953
 30
0.0
  0
INSERT
  5
251
330
36
100
AcDbEntity
  8
0
  6
Continuous
 62
     7
100
AcDbBlockReference
  2
KOZU0023
 10
676.6329299999999
 20
791.4643599999999
 30
0.0
  0
INSERT
  5
252
330
36
100
AcDbEntity
  8
0
  6
Continuous
 62
     7
100
AcDbBlockReference
  2
KOZU0024
 10
680.1489899999999
 20
796.32617
 30
0.0
  0
INSERT
  5
253
330
36
100
AcDbEntity
  8
0
  6
Continuous
 62
     7
100
AcDbBlockReference
  2
KOZU0025
 10
623.1909799999999
 20
687.7249799999999
 30
0.0
  0
ENDSEC
  0
SECTION
  2
OBJECTS
  0
DICTIONARY
  5
C
330
0
100
AcDbDictionary
281
     1
  3
ACAD_COLOR
350
2F
  3
ACAD_GROUP
350
D
  3
ACAD_LAYOUT
350
2E
  3
ACAD_MATERIAL
350
10
  3
ACAD_MLINESTYLE
350
2B
  3
ACAD_PLOTSETTINGS
350
2D
  3
ACAD_PLOTSTYLENAME
350
E
  3
ACAD_TABLESTYLE
350
30
  3
ACAD_VISUALSTYLE
350
14
  3
AcDbVariableDictionary
350
2FA
  3
AcmDictionary
350
2B0
  3
AMG
350
257
  3
AMGSNAPSETTINGS
350
2F1
  3
DWGPROPS
350
37C
  0
DICTIONARY
  5
2F
102
{ACAD_REACTORS
330
C
102
}
330
C
100
AcDbDictionary
281
     1
  0
DICTIONARY
  5
D
102
{ACAD_REACTORS
330
C
102
}
330
C
100
AcDbDictionary
281
     1
  0
DICTIONARY
  5
2E
102
{ACAD_REACTORS
330
C
102
}
330
C
100
AcDbDictionary
281
     1
  3
Model
350
39
  3
レイアウト1
350
35
  0
DICTIONARY
  5
10
102
{ACAD_REACTORS
330
C
102
}
330
C
100
AcDbDictionary
281
     1
  3
ByBlock
350
12
  3
ByLayer
350
11
  3
Global
350
13
  0
DICTIONARY
  5
2B
102
{ACAD_REACTORS
330
C
102
}
330
C
100
AcDbDictionary
281
     1
  3
Standard
350
2C
  0
DICTIONARY
  5
2D
102
{ACAD_REACTORS
330
C
102
}
330
C
100
AcDbDictionary
281
     1
  0
ACDBDICTIONARYWDFLT
  5
E
102
{ACAD_REACTORS
330
C
102
}
330
C
100
AcDbDictionary
281
     1
  3
Normal
350
F
100
AcDbDictionaryWithDefault
340
F
  0
DICTIONARY
  5
30
102
{ACAD_REACTORS
330
C
102
}
330
C
100
AcDbDictionary
281
     1
  3
Standard
350
31
  0
DICTIONARY
  5
14
102
{ACAD_REACTORS
330
C
102
}
330
C
100
AcDbDictionary
281
     1
  3
2dWireframe
350
1A
  3
3D Hidden
350
1C
  3
3dWireframe
350
1B
  3
Basic
350
19
  3
Brighten
350
20
  3
ColorChange
350
24
  3
Conceptual
350
1D
  3
Dim
350
1F
  3
Facepattern
350
23
  3
Flat
350
15
  3
FlatWithEdges
350
16
  3
Gouraud
350
17
  3
GouraudWithEdges
350
18
  3
Linepattern
350
22
  3
Realistic
350
1E
  3
Thicken
350
21
  0
DICTIONARY
  5
2FA
102
{ACAD_REACTORS
330
C
102
}
330
C
100
AcDbDictionary
281
     1
  3
CTABLESTYLE
350
2FB
  3
DIMASSOC
350
37B
  3
INDEXCTL
350
37A
  3
SORTENTS
350
379
  0
DICTIONARY
  5
2B0
102
{ACAD_REACTORS
330
C
102
}
330
C
100
AcDbDictionary
281
     1
  3
AcmStdDictionary
350
2BB
  3
AMDTSECTSYM_ARROWCOLOR
350
2DC
  0
DICTIONARY
  5
257
102
{ACAD_REACTORS
330
C
102
}
330
C
100
AcDbDictionary
281
     1
  0
DICTIONARY
  5
2F1
102
{ACAD_REACTORS
330
C
102
}
330
C
100
AcDbDictionary
281
     1
  0
XRECORD
  5
37C
102
{ACAD_REACTORS
330
C
102
}
330
C
100
AcDbXrecord
280
     1
  1
DWGPROPS COOKIE
  2

  3

  4

  6

  7

  8
Administrator
  9

300
=
301
=
302
=
303
=
304
=
305
=
306
=
307
=
308
=
309
=
 40
0.0112205208333333
 41
2454475.546722176
 42
2454988.758327002
  1

 90
        0
  0
LAYOUT
  5
39
102
{ACAD_XDICTIONARY
360
387
102
}
102
{ACAD_REACTORS
330
2E
102
}
330
2E
100
AcDbPlotSettings
  1

  2
\\CAD-SRV01\FX DocuColor 1250 PLW
  4

  6

 40
0.0
 41
0.0
 42
0.0
 43
0.0
 44
0.0
 45
0.0
 46
0.0
 47
0.0
 48
0.0
 49
0.0
140
0.0
141
0.0
142
1.0
143
1.0
 70
  1712
 72
     0
 73
     0
 74
     0
  7

 75
     0
147
1.0
148
0.0
149
0.0
100
AcDbLayout
  1
Model
 70
     1
 71
     0
 10
0.0
 20
0.0
 11
12.0
 21
9.0
 12
0.0
 22
0.0
 32
0.0
 14
0.0
 24
0.0
 34
0.0
 15
0.0
 25
0.0
 35
0.0
146
0.0
 13
0.0
 23
0.0
 33
0.0
 16
1.0
 26
0.0
 36
0.0
 17
0.0
 27
1.0
 37
0.0
 76
     0
330
36
331
41
  0
LAYOUT
  5
35
102
{ACAD_XDICTIONARY
360
385
102
}
102
{ACAD_REACTORS
330
2E
102
}
330
2E
100
AcDbPlotSettings
  1

  2
\\CAD-SRV01\FX DocuColor 1250 PLW
  4

  6

 40
0.0
 41
0.0
 42
0.0
 43
0.0
 44
0.0
 45
0.0
 46
0.0
 47
0.0
 48
0.0
 49
0.0
140
0.0
141
0.0
142
1.0
143
1.0
 70
   688
 72
     0
 73
     0
 74
     5
  7

 75
    16
147
1.0
148
0.0
149
0.0
100
AcDbLayout
  1
レイアウト1
 70
     1
 71
     1
 10
465.0219099999999
 20
551.1169399999999
 11
885.02191
 21
848.11694
 12
0.0
 22
0.0
 32
0.0
 14
1.000000000000000E+20
 24
1.000000000000000E+20
 34
1.000000000000000E+20
 15
-1.000000000000000E+20
 25
-1.000000000000000E+20
 35
-1.000000000000000E+20
146
0.0
 13
0.0
 23
0.0
 33
0.0
 16
1.0
 26
0.0
 36
0.0
 17
0.0
 27
1.0
 37
0.0
 76
     0
330
32
  0
MATERIAL
  5
12
102
{ACAD_XDICTIONARY
360
37F
102
}
102
{ACAD_REACTORS
330
10
102
}
330
10
100
AcDbMaterial
  1
ByBlock
  0
MATERIAL
  5
11
102
{ACAD_XDICTIONARY
360
37D
102
}
102
{ACAD_REACTORS
330
10
102
}
330
10
100
AcDbMaterial
  1
ByLayer
  0
MATERIAL
  5
13
102
{ACAD_XDICTIONARY
360
381
102
}
102
{ACAD_REACTORS
330
10
102
}
330
10
100
AcDbMaterial
  1
Global
  0
MLINESTYLE
  5
2C
102
{ACAD_REACTORS
330
2B
102
}
330
2B
100
AcDbMlineStyle
  2
STANDARD
 70
     0
  3

 62
   256
 51
90.0
 52
90.0
 71
     2
 49
0.5
 62
   256
  6
BYLAYER
 49
-0.5
 62
   256
  6
BYLAYER
  0
ACDBPLACEHOLDER
  5
F
102
{ACAD_REACTORS
330
E
102
}
330
E
  0
TABLESTYLE
  5
31
102
{ACAD_XDICTIONARY
360
383
102
}
102
{ACAD_REACTORS
330
30
102
}
330
30
100
AcDbTableStyle
  3
Standard
 70
     0
 71
     0
 40
0.06
 41
0.06
280
     0
281
     0
  7
STANDARD
140
0.18
170
     2
 62
     0
 63
     7
283
     0
274
    -2
284
     1
 64
     0
275
    -2
285
     1
 65
     0
276
    -2
286
     1
 66
     0
277
    -2
287
     1
 67
     0
278
    -2
288
     1
 68
     0
279
    -2
289
     1
 69
     0
  7
STANDARD
140
0.25
170
     5
 62
     0
 63
     7
283
     0
274
    -2
284
     1
 64
     0
275
    -2
285
     1
 65
     0
276
    -2
286
     1
 66
     0
277
    -2
287
     1
 67
     0
278
    -2
288
     1
 68
     0
279
    -2
289
     1
 69
     0
  7
STANDARD
140
0.18
170
     5
 62
     0
 63
     7
283
     0
274
    -2
284
     1
 64
     0
275
    -2
285
     1
 65
     0
276
    -2
286
     1
 66
     0
277
    -2
287
     1
 67
     0
278
    -2
288
     1
 68
     0
279
    -2
289
     1
 69
     0
  0
VISUALSTYLE
  5
1A
102
{ACAD_REACTORS
330
14
102
}
330
14
100
AcDbVisualStyle
  2
2dWireframe
 70
     4
 71
     0
 72
     2
 73
     0
 90
        0
 40
-0.6
 41
-30.0
 62
     5
 63
     7
 74
     1
 91
        4
 64
     7
 65
   257
 75
     1
175
     1
 42
1.0
 92
        0
 66
   257
 43
1.0
 76
     1
 77
     6
 78
     2
 67
     7
 79
     5
170
     0
171
     0
290
     0
174
     0
 93
        1
 44
0.0
173
     0
291
     0
 45
0.0
1001
ACAD
1000
AcDbSavedByObjectVersion
1070
     0
  0
VISUALSTYLE
  5
1C
102
{ACAD_REACTORS
330
14
102
}
330
14
100
AcDbVisualStyle
  2
3D Hidden
 70
     6
 71
     1
 72
     2
 73
     2
 90
        0
 40
-0.6
 41
-30.0
 62
     5
 63
     7
 74
     2
 91
        2
 64
     7
 65
   257
 75
     2
175
     1
 42
40.0
 92
        0
 66
   257
 43
1.0
 76
     1
 77
     6
 78
     2
 67
     7
 79
     3
170
     0
171
     0
290
     0
174
     0
 93
        1
 44
0.0
173
     0
291
     0
 45
0.0
1001
ACAD
1000
AcDbSavedByObjectVersion
1070
     0
  0
VISUALSTYLE
  5
1B
102
{ACAD_REACTORS
330
14
102
}
330
14
100
AcDbVisualStyle
  2
3dWireframe
 70
     5
 71
     0
 72
     2
 73
     0
 90
        0
 40
-0.6
 41
-30.0
 62
     5
 63
     7
 74
     1
 91
        4
 64
     7
 65
   257
 75
     1
175
     1
 42
1.0
 92
        0
 66
   257
 43
1.0
 76
     1
 77
     6
 78
     2
 67
     7
 79
     5
170
     0
171
     0
290
     0
174
     0
 93
        1
 44
0.0
173
     0
291
     0
 45
0.0
1001
ACAD
1000
AcDbSavedByObjectVersion
1070
     0
  0
VISUALSTYLE
  5
19
102
{ACAD_REACTORS
330
14
102
}
330
14
100
AcDbVisualStyle
  2
Basic
 70
     7
 71
     1
 72
     0
 73
     1
 90
        0
 40
-0.6
 41
-30.0
 62
     5
 63
     7
 74
     0
 91
        4
 64
     7
 65
   257
 75
     1
175
     1
 42
1.0
 92
        8
 66
     7
 43
1.0
 76
     1
 77
     6
 78
     2
 67
     7
 79
     5
170
     0
171
     0
290
     0
174
     0
 93
        1
 44
0.0
173
     0
291
     1
 45
0.0
1001
ACAD
1000
AcDbSavedByObjectVersion
1070
     0
  0
VISUALSTYLE
  5
20
102
{ACAD_REACTORS
330
14
102
}
330
14
100
AcDbVisualStyle
  2
Brighten
 70
    12
 71
     2
 72
     2
 73
     0
 90
        0
 40
-0.6
 41
-30.0
 62
     5
 63
     7
 74
     1
 91
        4
 64
     7
 65
   257
 75
     1
175
     1
 42
1.0
 92
        8
 66
     7
 43
1.0
 76
     1
 77
     6
 78
     2
 67
     7
 79
     5
170
     0
171
     0
290
     0
174
     0
 93
        1
 44
50.0
173
     0
291
     1
 45
0.0
1001
ACAD
1000
AcDbSavedByObjectVersion
1070
     0
  0
VISUALSTYLE
  5
24
102
{ACAD_REACTORS
330
14
102
}
330
14
100
AcDbVisualStyle
  2
ColorChange
 70
    16
 71
     2
 72
     2
 73
     3
 90
        0
 40
-0.6
 41
-30.0
 62
     5
 63
     8
 74
     1
 91
        4
 64
     7
 65
   257
 75
     1
175
     1
 42
1.0
 92
        8
 66
     8
 43
1.0
 76
     1
 77
     6
 78
     2
 67
     7
 79
     5
170
     0
171
     0
290
     0
174
     0
 93
        1
 44
0.0
173
     0
291
     1
 45
0.0
1001
ACAD
1000
AcDbSavedByObjectVersion
1070
     0
  0
VISUALSTYLE
  5
1D
102
{ACAD_REACTORS
330
14
102
}
330
14
100
AcDbVisualStyle
  2
Conceptual
 70
     9
 71
     3
 72
     2
 73
     0
 90
        0
 40
-0.6
 41
-30.0
 62
     5
 63
     7
 74
     2
 91
        2
 64
     7
 65
   257
 75
     1
175
     1
 42
40.0
 92
        8
 66
     7
 43
1.0
 76
     1
 77
     6
 78
     2
 67
     7
 79
     3
170
     0
171
     0
290
     0
174
     0
 93
        1
 44
0.0
173
     0
291
     0
 45
0.0
1001
ACAD
1000
AcDbSavedByObjectVersion
1070
     0
  0
VISUALSTYLE
  5
1F
102
{ACAD_REACTORS
330
14
102
}
330
14
100
AcDbVisualStyle
  2
Dim
 70
    11
 71
     2
 72
     2
 73
     0
 90
        0
 40
-0.6
 41
-30.0
 62
     5
 63
     7
 74
     1
 91
        4
 64
     7
 65
   257
 75
     1
175
     1
 42
1.0
 92
        8
 66
     7
 43
1.0
 76
     1
 77
     6
 78
     2
 67
     7
 79
     5
170
     0
171
     0
290
     0
174
     0
 93
        1
 44
-50.0
173
     0
291
     1
 45
0.0
1001
ACAD
1000
AcDbSavedByObjectVersion
1070
     0
  0
VISUALSTYLE
  5
23
102
{ACAD_REACTORS
330
14
102
}
330
14
100
AcDbVisualStyle
  2
Facepattern
 70
    15
 71
     2
 72
     2
 73
     0
 90
        0
 40
-0.6
 41
-30.0
 62
     5
 63
     7
 74
     1
 91
        4
 64
     7
 65
   257
 75
     1
175
     1
 42
1.0
 92
        8
 66
     7
 43
1.0
 76
     1
 77
     6
 78
     2
 67
     7
 79
     5
170
     0
171
     0
290
     0
174
     0
 93
        1
 44
0.0
173
     0
291
     1
 45
0.0
1001
ACAD
1000
AcDbSavedByObjectVersion
1070
     0
  0
VISUALSTYLE
  5
15
102
{ACAD_REACTORS
330
14
102
}
330
14
100
AcDbVisualStyle
  2
Flat
 70
     0
 71
     2
 72
     1
 73
     1
 90
        2
 40
-0.6
 41
30.0
 62
     5
 63
     7
 74
     0
 91
        4
 64
     7
 65
   257
 75
     1
175
     1
 42
1.0
 92
        8
 66
     7
 43
1.0
 76
     1
 77
     6
 78
     2
 67
     7
 79
     5
170
     0
171
     0
290
     0
174
     0
 93
       13
 44
0.0
173
     0
291
     1
 45
0.0
1001
ACAD
1000
AcDbSavedByObjectVersion
1070
     0
  0
VISUALSTYLE
  5
16
102
{ACAD_REACTORS
330
14
102
}
330
14
100
AcDbVisualStyle
  2
FlatWithEdges
 70
     1
 71
     2
 72
     1
 73
     1
 90
        2
 40
-0.6
 41
30.0
 62
     5
 63
     7
 74
     1
 91
        4
 64
     7
 65
   257
 75
     1
175
     1
 42
1.0
 92
        0
 66
   257
 43
1.0
 76
     1
 77
     6
 78
     2
 67
     7
 79
     5
170
     0
171
     0
290
     0
174
     0
 93
       13
 44
0.0
173
     0
291
     1
 45
0.0
1001
ACAD
1000
AcDbSavedByObjectVersion
1070
     0
  0
VISUALSTYLE
  5
17
102
{ACAD_REACTORS
330
14
102
}
330
14
100
AcDbVisualStyle
  2
Gouraud
 70
     2
 71
     2
 72
     2
 73
     1
 90
        2
 40
-0.6
 41
30.0
 62
     5
 63
     7
 74
     0
 91
        4
 64
     7
 65
   257
 75
     1
175
     1
 42
1.0
 92
        0
 66
     7
 43
1.0
 76
     1
 77
     6
 78
     2
 67
     7
 79
     5
170
     0
171
     0
290
     0
174
     0
 93
       13
 44
0.0
173
     0
291
     1
 45
0.0
1001
ACAD
1000
AcDbSavedByObjectVersion
1070
     0
  0
VISUALSTYLE
  5
18
102
{ACAD_REACTORS
330
14
102
}
330
14
100
AcDbVisualStyle
  2
GouraudWithEdges
 70
     3
 71
     2
 72
     2
 73
     1
 90
        2
 40
-0.6
 41
30.0
 62
     5
 63
     7
 74
     1
 91
        4
 64
     7
 65
   257
 75
     1
175
     1
 42
1.0
 92
        0
 66
   257
 43
1.0
 76
     1
 77
     6
 78
     2
 67
     7
 79
     5
170
     0
171
     0
290
     0
174
     0
 93
       13
 44
0.0
173
     0
291
     1
 45
0.0
1001
ACAD
1000
AcDbSavedByObjectVersion
1070
     0
  0
VISUALSTYLE
  5
22
102
{ACAD_REACTORS
330
14
102
}
330
14
100
AcDbVisualStyle
  2
Linepattern
 70
    14
 71
     2
 72
     2
 73
     0
 90
        0
 40
-0.6
 41
-30.0
 62
     5
 63
     7
 74
     1
 91
        4
 64
     7
 65
   257
 75
     7
175
     7
 42
1.0
 92
        8
 66
     7
 43
1.0
 76
     1
 77
     6
 78
     2
 67
     7
 79
     5
170
     0
171
     0
290
     0
174
     0
 93
        1
 44
0.0
173
     0
291
     1
 45
0.0
1001
ACAD
1000
AcDbSavedByObjectVersion
1070
     0
  0
VISUALSTYLE
  5
1E
102
{ACAD_REACTORS
330
14
102
}
330
14
100
AcDbVisualStyle
  2
Realistic
 70
     8
 71
     2
 72
     2
 73
     0
 90
        0
 40
-0.6
 41
-30.0
 62
     5
 63
     7
 74
     1
 91
        0
 64
     7
 65
   257
 75
     1
175
     1
 42
1.0
 92
        8
 66
     8
 43
1.0
 76
     1
 77
     6
 78
     2
 67
     7
 79
     5
170
     0
171
     0
290
     0
174
     0
 93
       13
 44
0.0
173
     0
291
     0
 45
0.0
1001
ACAD
1000
AcDbSavedByObjectVersion
1070
     0
  0
VISUALSTYLE
  5
21
102
{ACAD_REACTORS
330
14
102
}
330
14
100
AcDbVisualStyle
  2
Thicken
 70
    13
 71
     2
 72
     2
 73
     0
 90
        0
 40
-0.6
 41
-30.0
 62
     5
 63
     7
 74
     1
 91
        4
 64
     7
 65
   257
 75
     1
175
     1
 42
1.0
 92
       12
 66
     7
 43
1.0
 76
     1
 77
     6
 78
     2
 67
     7
 79
     5
170
     0
171
     0
290
     0
174
     0
 93
        1
 44
0.0
173
     0
291
     1
 45
0.0
1001
ACAD
1000
AcDbSavedByObjectVersion
1070
     0
  0
DICTIONARYVAR
  5
2FB
102
{ACAD_REACTORS
330
2FA
102
}
330
2FA
100
DictionaryVariables
280
     0
  1
STANDARD
  0
DICTIONARYVAR
  5
37B
102
{ACAD_REACTORS
330
2FA
102
}
330
2FA
100
DictionaryVariables
280
     0
  1
1
  0
DICTIONARYVAR
  5
37A
102
{ACAD_REACTORS
330
2FA
102
}
330
2FA
100
DictionaryVariables
280
     0
  1
0
  0
DICTIONARYVAR
  5
379
102
{ACAD_REACTORS
330
2FA
102
}
330
2FA
100
DictionaryVariables
280
     0
  1
127
  0
DICTIONARY
  5
2BB
102
{ACAD_REACTORS
330
2B0
102
}
330
2B0
100
AcDbDictionary
281
     1
  0
XRECORD
  5
2DC
102
{ACAD_REACTORS
330
2B0
102
}
330
2B0
100
AcDbXrecord
280
     1
 90
-1023410169
  0
DICTIONARY
  5
387
330
39
100
AcDbDictionary
280
     1
281
     1
  3
ACAD_XREC_ROUNDTRIP
360
388
  0
DICTIONARY
  5
385
330
35
100
AcDbDictionary
280
     1
281
     1
  3
ACAD_XREC_ROUNDTRIP
360
386
  0
DICTIONARY
  5
37F
330
12
100
AcDbDictionary
280
     1
281
     1
  3
ACAD_XREC_ROUNDTRIP
360
380
  0
DICTIONARY
  5
37D
330
11
100
AcDbDictionary
280
     1
281
     1
  3
ACAD_XREC_ROUNDTRIP
360
37E
  0
DICTIONARY
  5
381
330
13
100
AcDbDictionary
280
     1
281
     1
  3
ACAD_XREC_ROUNDTRIP
360
382
  0
DICTIONARY
  5
383
330
31
100
AcDbDictionary
280
     1
281
     1
  3
ACAD_XREC_ROUNDTRIP
360
384
  0
XRECORD
  5
388
102
{ACAD_REACTORS
330
387
102
}
330
387
100
AcDbXrecord
280
     1
102
SHADEPLOT
 70
     0
102
SHADEPLOTRESLEVEL
 70
     2
102
SHADEPLOTCUSTOMDPI
 70
   300
  0
XRECORD
  5
386
102
{ACAD_REACTORS
330
385
102
}
330
385
100
AcDbXrecord
280
     1
102
SHADEPLOT
 70
     0
102
SHADEPLOTRESLEVEL
 70
     2
102
SHADEPLOTCUSTOMDPI
 70
   300
  0
XRECORD
  5
380
102
{ACAD_REACTORS
330
37F
102
}
330
37F
100
AcDbXrecord
280
     1
102
MATERIAL
148
0.0
149
0.0
149
0.0
 93
        0
 94
       63
282
     0
 72
     1
 77
     1
171
     1
175
     1
179
     1
273
     0
  0
XRECORD
  5
37E
102
{ACAD_REACTORS
330
37D
102
}
330
37D
100
AcDbXrecord
280
     1
102
MATERIAL
148
0.0
149
0.0
149
0.0
 93
        0
 94
       63
282
     0
 72
     1
 77
     1
171
     1
175
     1
179
     1
273
     0
  0
XRECORD
  5
382
102
{ACAD_REACTORS
330
381
102
}
330
381
100
AcDbXrecord
280
     1
102
MATERIAL
148
0.0
149
0.0
149
0.0
 93
        0
 94
       63
282
     0
 72
     1
 77
     1
171
     1
175
     1
179
     1
273
     0
  0
XRECORD
  5
384
102
{ACAD_REACTORS
330
383
102
}
330
383
100
AcDbXrecord
280
     1
102
ACAD_ROUNDTRIP_PRE2007_TABLESTYLE
 90
      512
 91
        0
  1

 92
      512
 93
        0
  2

 94
      512
 95
        0
  3

  0
ENDSEC
  0
EOF
