  0
SECTION
  2
HEADER
  9
$ACADVER
  1
AC1018
  9
$ACADMAINTVER
 70
   104
  9
$DWGCODEPAGE
  3
ANSI_932
  9
$LASTSAVEDBY
  1
Administrator
  9
$INSBASE
 10
0.0
 20
0.0
 30
0.0
  9
$EXTMIN
 10
442.8699299999999
 20
269.90408
 30
0.0
  9
$EXTMAX
 10
862.86993
 20
566.90405
 30
0.0
  9
$LIMMIN
 10
442.8699299999999
 20
269.90408
  9
$LIMMAX
 10
862.86993
 20
566.90408
  9
$ORTHOMODE
 70
     0
  9
$REGENMODE
 70
     1
  9
$FILLMODE
 70
     1
  9
$QTEXTMODE
 70
     0
  9
$MIRRTEXT
 70
     0
  9
$LTSCALE
 40
1.0
  9
$ATTMODE
 70
     1
  9
$TEXTSIZE
 40
0.2
  9
$TRACEWID
 40
0.05
  9
$TEXTSTYLE
  7
STANDARD
  9
$CLAYER
  8
AM_0
  9
$CELTYPE
  6
ByLayer
  9
$CECOLOR
 62
   256
  9
$CELTSCALE
 40
1.0
  9
$DISPSILH
 70
     0
  9
$DIMSCALE
 40
1.0
  9
$DIMASZ
 40
1.0
  9
$DIMEXO
 40
2.54
  9
$DIMDLI
 40
0.38
  9
$DIMRND
 40
0.0
  9
$DIMDLE
 40
0.0
  9
$DIMEXE
 40
2.54
  9
$DIMTP
 40
0.0
  9
$DIMTM
 40
0.0
  9
$DIMTXT
 40
3.2
  9
$DIMCEN
 40
0.09
  9
$DIMTSZ
 40
0.0
  9
$DIMTOL
 70
     0
  9
$DIMLIM
 70
     0
  9
$DIMTIH
 70
     0
  9
$DIMTOH
 70
     0
  9
$DIMSE1
 70
     0
  9
$DIMSE2
 70
     0
  9
$DIMTAD
 70
     1
  9
$DIMZIN
 70
     0
  9
$DIMBLK
  1

  9
$DIMASO
 70
     1
  9
$DIMSHO
 70
     0
  9
$DIMPOST
  1

  9
$DIMAPOST
  1

  9
$DIMALT
 70
     0
  9
$DIMALTD
 70
     2
  9
$DIMALTF
 40
25.4
  9
$DIMLFAC
 40
1.0
  9
$DIMTOFL
 70
     0
  9
$DIMTVP
 40
1.0
  9
$DIMTIX
 70
     0
  9
$DIMSOXD
 70
     0
  9
$DIMSAH
 70
     1
  9
$DIMBLK1
  1

  9
$DIMBLK2
  1

  9
$DIMSTYLE
  2
Standard
  9
$DIMCLRD
 70
     0
  9
$DIMCLRE
 70
     0
  9
$DIMCLRT
 70
     0
  9
$DIMTFAC
 40
1.0
  9
$DIMGAP
 40
1.6
  9
$DIMJUST
 70
     0
  9
$DIMSD1
 70
     0
  9
$DIMSD2
 70
     0
  9
$DIMTOLJ
 70
     1
  9
$DIMTZIN
 70
     0
  9
$DIMALTZ
 70
     0
  9
$DIMALTTZ
 70
     0
  9
$DIMUPT
 70
     0
  9
$DIMDEC
 70
     4
  9
$DIMTDEC
 70
     4
  9
$DIMALTU
 70
     2
  9
$DIMALTTD
 70
     2
  9
$DIMTXSTY
  7
STANDARD
  9
$DIMAUNIT
 70
     0
  9
$DIMADEC
 70
     0
  9
$DIMALTRND
 40
0.0
  9
$DIMAZIN
 70
     0
  9
$DIMDSEP
 70
    46
  9
$DIMATFIT
 70
     3
  9
$DIMFRAC
 70
     0
  9
$DIMLDRBLK
  1

  9
$DIMLUNIT
 70
     2
  9
$DIMLWD
 70
    -2
  9
$DIMLWE
 70
    -2
  9
$DIMTMOVE
 70
     0
  9
$LUNITS
 70
     2
  9
$LUPREC
 70
     4
  9
$SKETCHINC
 40
0.1
  9
$FILLETRAD
 40
0.0
  9
$AUNITS
 70
     0
  9
$AUPREC
 70
     0
  9
$MENU
  1
.
  9
$ELEVATION
 40
0.0
  9
$PELEVATION
 40
0.0
  9
$THICKNESS
 40
0.0
  9
$LIMCHECK
 70
     0
  9
$CHAMFERA
 40
0.0
  9
$CHAMFERB
 40
0.0
  9
$CHAMFERC
 40
0.0
  9
$CHAMFERD
 40
0.0
  9
$SKPOLY
 70
     0
  9
$TDCREATE
 40
2454475.546661956
  9
$TDUCREATE
 40
2454475.171661957
  9
$TDUPDATE
 40
2454756.721239873
  9
$TDUUPDATE
 40
2454756.346239873
  9
$TDINDWG
 40
0.0127826736
  9
$TDUSRTIMER
 40
0.0127826736
  9
$USRTIMER
 70
     1
  9
$ANGBASE
 50
0.0
  9
$ANGDIR
 70
     0
  9
$PDMODE
 70
     0
  9
$PDSIZE
 40
0.0
  9
$PLINEWID
 40
0.0
  9
$SPLFRAME
 70
     0
  9
$SPLINETYPE
 70
     6
  9
$SPLINESEGS
 70
     8
  9
$HANDSEED
  5
53C
  9
$SURFTAB1
 70
     6
  9
$SURFTAB2
 70
     6
  9
$SURFTYPE
 70
     6
  9
$SURFU
 70
     6
  9
$SURFV
 70
     6
  9
$UCSBASE
  2

  9
$UCSNAME
  2

  9
$UCSORG
 10
0.0
 20
0.0
 30
0.0
  9
$UCSXDIR
 10
1.0
 20
0.0
 30
0.0
  9
$UCSYDIR
 10
0.0
 20
1.0
 30
0.0
  9
$UCSORTHOREF
  2

  9
$UCSORTHOVIEW
 70
     0
  9
$UCSORGTOP
 10
0.0
 20
0.0
 30
0.0
  9
$UCSORGBOTTOM
 10
0.0
 20
0.0
 30
0.0
  9
$UCSORGLEFT
 10
0.0
 20
0.0
 30
0.0
  9
$UCSORGRIGHT
 10
0.0
 20
0.0
 30
0.0
  9
$UCSORGFRONT
 10
0.0
 20
0.0
 30
0.0
  9
$UCSORGBACK
 10
0.0
 20
0.0
 30
0.0
  9
$PUCSBASE
  2

  9
$PUCSNAME
  2

  9
$PUCSORG
 10
0.0
 20
0.0
 30
0.0
  9
$PUCSXDIR
 10
1.0
 20
0.0
 30
0.0
  9
$PUCSYDIR
 10
0.0
 20
1.0
 30
0.0
  9
$PUCSORTHOREF
  2

  9
$PUCSORTHOVIEW
 70
     0
  9
$PUCSORGTOP
 10
0.0
 20
0.0
 30
0.0
  9
$PUCSORGBOTTOM
 10
0.0
 20
0.0
 30
0.0
  9
$PUCSORGLEFT
 10
0.0
 20
0.0
 30
0.0
  9
$PUCSORGRIGHT
 10
0.0
 20
0.0
 30
0.0
  9
$PUCSORGFRONT
 10
0.0
 20
0.0
 30
0.0
  9
$PUCSORGBACK
 10
0.0
 20
0.0
 30
0.0
  9
$USERI1
 70
     0
  9
$USERI2
 70
     0
  9
$USERI3
 70
     0
  9
$USERI4
 70
     0
  9
$USERI5
 70
     0
  9
$USERR1
 40
0.0
  9
$USERR2
 40
0.0
  9
$USERR3
 40
0.0
  9
$USERR4
 40
0.0
  9
$USERR5
 40
0.0
  9
$WORLDVIEW
 70
     1
  9
$SHADEDGE
 70
     3
  9
$SHADEDIF
 70
    70
  9
$TILEMODE
 70
     1
  9
$MAXACTVP
 70
    64
  9
$PINSBASE
 10
0.0
 20
0.0
 30
0.0
  9
$PLIMCHECK
 70
     0
  9
$PEXTMIN
 10
1.000000000000000E+20
 20
1.000000000000000E+20
 30
1.000000000000000E+20
  9
$PEXTMAX
 10
-1.000000000000000E+20
 20
-1.000000000000000E+20
 30
-1.000000000000000E+20
  9
$PLIMMIN
 10
442.8699299999999
 20
269.90408
  9
$PLIMMAX
 10
862.86993
 20
566.90408
  9
$UNITMODE
 70
     0
  9
$VISRETAIN
 70
     1
  9
$PLINEGEN
 70
     0
  9
$PSLTSCALE
 70
     1
  9
$TREEDEPTH
 70
  3020
  9
$CMLSTYLE
  2
Standard
  9
$CMLJUST
 70
     0
  9
$CMLSCALE
 40
1.0
  9
$PROXYGRAPHICS
 70
     1
  9
$MEASUREMENT
 70
     0
  9
$CELWEIGHT
370
    -1
  9
$ENDCAPS
280
     0
  9
$JOINSTYLE
280
     0
  9
$LWDISPLAY
290
     0
  9
$INSUNITS
 70
     0
  9
$HYPERLINKBASE
  1

  9
$STYLESHEET
  1

  9
$XEDIT
290
     1
  9
$CEPSNTYPE
380
     0
  9
$PSTYLEMODE
290
     1
  9
$FINGERPRINTGUID
  2
{23278BB9-4A45-4DD9-B4A7-7F5E4BEA12DB}
  9
$VERSIONGUID
  2
{EA3F9F3C-C661-4294-A240-1AB9ED065CAB}
  9
$EXTNAMES
290
     1
  9
$PSVPSCALE
 40
0.0
  9
$OLESTARTUP
290
     0
  9
$SORTENTS
280
   127
  9
$INDEXCTL
280
     0
  9
$HIDETEXT
280
     0
  9
$XCLIPFRAME
290
     0
  9
$HALOGAP
280
     0
  9
$OBSCOLOR
 70
   257
  9
$OBSLTYPE
280
     0
  9
$INTERSECTIONDISPLAY
280
     0
  9
$INTERSECTIONCOLOR
 70
   257
  9
$DIMASSOC
280
     1
  9
$PROJECTNAME
  1

  0
ENDSEC
  0
SECTION
  2
CLASSES
  0
CLASS
  1
ACDBDICTIONARYWDFLT
  2
AcDbDictionaryWithDefault
  3
ObjectDBX Classes
 90
        0
 91
        1
280
     0
281
     0
  0
CLASS
  1
MATERIAL
  2
AcDbMaterial
  3
ObjectDBX Classes
 90
     1153
 91
        3
280
     0
281
     0
  0
CLASS
  1
VISUALSTYLE
  2
AcDbVisualStyle
  3
ObjectDBX Classes
 90
     4095
 91
       16
280
     0
281
     0
  0
CLASS
  1
TABLESTYLE
  2
AcDbTableStyle
  3
ObjectDBX Classes
 90
     4095
 91
        1
280
     0
281
     0
  0
CLASS
  1
AMGSETTINGSOBJ
  2
AmgSettingsObj
  3
"AcadM|Product Description: AutoCAD Mechanical|Company: Autodesk, Inc."
 90
     1024
 91
        2
280
     0
281
     0
  0
CLASS
  1
ACME_DOCUMENT
  2
AcMeDbDoc
  3
AcMeServices
 90
     1024
 91
        2
280
     0
281
     0
  0
CLASS
  1
ACMESCOPE
  2
AcMeScope
  3
AcMeServices
 90
     1024
 91
        1
280
     0
281
     0
  0
CLASS
  1
ACMECOMMANDHISTORY
  2
AcMeCommandHistory
  3
AcMeServices
 90
     1024
 91
        1
280
     0
281
     0
  0
CLASS
  1
ACIMSYSVARMAN
  2
AcImSysVarManager
  3
AcMeServices
 90
     1024
 91
        5
280
     0
281
     0
  0
CLASS
  1
ACIMINTSYSVAR
  2
AcImIntSysVar
  3
AcMeServices
 90
     1024
 91
       28
280
     0
281
     0
  0
CLASS
  1
ACMEDRAWINGMAN
  2
AcMeDrawingMan
  3
AcMeServices
 90
     1024
 91
        1
280
     0
281
     0
  0
CLASS
  1
ACMEVIEW
  2
AcMeView
  3
AcMeServices
 90
     1024
 91
        1
280
     0
281
     0
  0
CLASS
  1
ACDBENTITYCACHE
  2
AcMeEntityCache
  3
AcMeServices
 90
     1024
 91
        1
280
     0
281
     0
  0
CLASS
  1
GSMANAGER
  2
AcMeGSManager
  3
AcMeServices
 90
     1024
 91
        1
280
     0
281
     0
  0
CLASS
  1
AMDTINTERNALREACTOR
  2
AmdtInternalReactor
  3
AcMeServices
 90
     1024
 91
        2
280
     0
281
     0
  0
CLASS
  1
ACMESTATEMGR
  2
AcMeStateMgr
  3
AcMeServices
 90
     1024
 91
        1
280
     0
281
     0
  0
CLASS
  1
ACGREFMASTER
  2
AcGrefMaster
  3
AcAttribServices
 90
     1024
 91
        1
280
     0
281
     0
  0
CLASS
  1
AM_DRAWING_MGR
  2
AcDmDwgMgr
  3
AcMechDwgViewMgmt
 90
     1024
 91
        1
280
     0
281
     0
  0
CLASS
  1
AM_DWG_DOCUMENT
  2
AcDmDwgDocument
  3
AcMechDwgViewMgmt
 90
     1024
 91
        1
280
     0
281
     0
  0
CLASS
  1
AM_DWG_SHEET
  2
AcDmSheet
  3
AcMechDwgViewMgmt
 90
     1024
 91
        1
280
     0
281
     0
  0
CLASS
  1
AM_VIEWDIMPARMAP
  2
AcDmViewDimParMap
  3
AcMechDwgViewMgmt
 90
     1024
 91
        1
280
     0
281
     0
  0
CLASS
  1
ACIMREALSYSVAR
  2
AcImRealSysVar
  3
AcMeServices
 90
     1024
 91
        1
280
     0
281
     0
  0
CLASS
  1
AM_DWGMGR_NAME
  2
AcDmDwgMgrName
  3
AcMechDwgViewMgmt
 90
     1024
 91
        1
280
     0
281
     0
  0
CLASS
  1
ACME_DATABASE
  2
AcMeDbDatabase
  3
AcMeServices
 90
     1024
 91
        1
280
     0
281
     0
  0
CLASS
  1
ACRFINSADJUSTERMGR
  2
AcRfInsAdjusterMgr
  3
AcMeServices
 90
     1024
 91
        1
280
     0
281
     0
  0
CLASS
  1
ACGREFACADMASTER
  2
AcGrefacadMaster
  3
AcGrefServices
 90
     1024
 91
        1
280
     0
281
     0
  0
CLASS
  1
AMDTMENUSTATEMGR
  2
AmdtMenuStateMgr
  3
McadcomServices
 90
     1024
 91
        1
280
     0
281
     0
  0
CLASS
  1
AMDTMCOMMENUSTATE
  2
AmdtMcomMenuState
  3
McadcomServices
 90
     1024
 91
        1
280
     0
281
     0
  0
CLASS
  1
AMIMASTER
  2
AmiMaster
  3
AmiServices
 90
     1024
 91
        1
280
     0
281
     0
  0
CLASS
  1
MAPIAMMOUDLE
  2
MApiAmModule
  3
MApiAmServices
 90
     1024
 91
        1
280
     0
281
     0
  0
CLASS
  1
ACIMSTRSYSVAR
  2
AcImStrSysVar
  3
AcMeServices
 90
     1024
 91
        5
280
     0
281
     0
  0
CLASS
  1
AMDTADMENUSTATE
  2
AmdtAdMenuState
  3
DesignerServices
 90
     1024
 91
        1
280
     0
281
     0
  0
CLASS
  1
ADAPPL
  2
AcAdAppl
  3
DesignerServices
 90
     1024
 91
        1
280
     0
281
     0
  0
CLASS
  1
DEPMGR
  2
AcAdDepMgr
  3
DesignerServices
 90
     1024
 91
        1
280
     0
281
     0
  0
CLASS
  1
PARAMMGR
  2
AcAdParamMgr
  3
DesignerServices
 90
     1024
 91
        1
280
     0
281
     0
  0
CLASS
  1
PARAMSCOPE
  2
AcAdParamScope
  3
DesignerServices
 90
     1024
 91
        1
280
     0
281
     0
  0
CLASS
  1
NAMEDAPPL
  2
AcAdNamedAppl
  3
DesignerServices
 90
     1024
 91
        1
280
     0
281
     0
  0
CLASS
  1
AMDTDMMENUSTATE
  2
AmdtDmMenuState
  3
AcMechDwgViewMgmt
 90
     1024
 91
        1
280
     0
281
     0
  0
CLASS
  1
AMDTAMMENUSTATE
  2
AmdtAmMenuState
  3
DesignerAssemblies
 90
     1024
 91
        1
280
     0
281
     0
  0
CLASS
  1
ACAMPROJECT
  2
AcAmProject
  3
DesignerAssemblies
 90
     1024
 91
        1
280
     0
281
     0
  0
CLASS
  1
ACAMGRCOMPDEF
  2
AcAmGrCompDef
  3
DesignerAssemblies
 90
     1024
 91
        1
280
     0
281
     0
  0
CLASS
  1
ACCMCONTEXT
  2
AcCmContext
  3
DesignerAssemblies
 90
     1024
 91
        1
280
     0
281
     0
  0
CLASS
  1
ACAMCOMPDEF
  2
AcAmCompDef
  3
DesignerAssemblies
 90
     1024
 91
        1
280
     0
281
     0
  0
CLASS
  1
ACAMCOMPDEFMGR
  2
AcAmCompDefMgr
  3
DesignerAssemblies
 90
     1024
 91
        1
280
     0
281
     0
  0
CLASS
  1
AMCONTEXTMGR
  2
AcAmContextMgr
  3
DesignerAssemblies
 90
     1024
 91
        1
280
     0
281
     0
  0
CLASS
  1
ACAMCONTEXTMODELER
  2
AcAmContextModeler
  3
DesignerAssemblies
 90
     1024
 91
        1
280
     0
281
     0
  0
CLASS
  1
ACMDATADICTIONARY
  2
AcmDataDictionary
  3
"AcmSymBB|Product Description: AutoCAD Mechanical|Company: Autodesk, Inc."
 90
     1024
 91
        1
280
     0
281
     0
  0
CLASS
  1
CATALOGSTATE
  2
AcAmCatalogState
  3
DesignerAssemblies
 90
     1024
 91
        1
280
     0
281
     0
  0
CLASS
  1
ACAMGRCOMPDEFSET
  2
AcAmGrCompDefSet
  3
DesignerAssemblies
 90
     1024
 91
        1
280
     0
281
     0
  0
CLASS
  1
AMDTBROWSERDBTAB
  2
AmdtBrowserDbTab
  3
McadcomServices
 90
     1024
 91
        1
280
     0
281
     0
  0
CLASS
  1
CBROWSERAPPOBJECT
  2
CBrowserAppObject
  3
McadcomServices
 90
     1024
 91
        3
280
     0
281
     0
  0
CLASS
  1
DM_PLACEHOLDER
  2
AcDmSelsetPlaceholder
  3
AcMechDwgViewMgmt
 90
     1024
 91
        1
280
     0
281
     0
  0
CLASS
  1
ACMSTANDARDANSI
  2
AcmStandardANSI
  3
"Amdt_StdImp|Product Description: AutoCAD Mechanical|Company: Autodesk, Inc."
 90
     1024
 91
        1
280
     0
281
     0
  0
CLASS
  1
AMGOBJPROPCFG
  2
AmgObjPropCfg
  3
"AmgLay|Product Description: AutoCAD Mechanical|Company: Autodesk, Inc."
 90
     1025
 91
        1
280
     0
281
     0
  0
CLASS
  1
ACMSURFSTANDARDANSI
  2
AcmSurfTextStdANSI
  3
"Amdt_StdImp|Product Description: AutoCAD Mechanical|Company: Autodesk, Inc."
 90
     1024
 91
        1
280
     0
281
     0
  0
CLASS
  1
ACMFCFSTANDARDANSI
  2
AcmFCFStdANSI
  3
"Amdt_StdImp|Product Description: AutoCAD Mechanical|Company: Autodesk, Inc."
 90
     1024
 91
        1
280
     0
281
     0
  0
CLASS
  1
ACMWELDSTANDARDANSI
  2
AcmWeldingStdANSI
  3
"Amdt_StdImp|Product Description: AutoCAD Mechanical|Company: Autodesk, Inc."
 90
     1024
 91
        1
280
     0
281
     0
  0
CLASS
  1
ACMIDSTANDARDANSI
  2
AcmIdStdANSI
  3
"Amdt_StdImp|Product Description: AutoCAD Mechanical|Company: Autodesk, Inc."
 90
     1024
 91
        1
280
     0
281
     0
  0
CLASS
  1
ACMDATUMSTANDARDANSI
  2
AcmDatumStdANSI
  3
"Amdt_StdImp|Product Description: AutoCAD Mechanical|Company: Autodesk, Inc."
 90
     1024
 91
        1
280
     0
281
     0
  0
CLASS
  1
ACMBOMSTANDARDANSI
  2
AcmBOMStdANSI
  3
"Amdt_StdImp|Product Description: AutoCAD Mechanical|Company: Autodesk, Inc."
 90
     1024
 91
        1
280
     0
281
     0
  0
CLASS
  1
ACMDETAILSTANDARDANSI
  2
AmdtDetailSymStdANSI
  3
"Amdt_StdImp|Product Description: AutoCAD Mechanical|Company: Autodesk, Inc."
 90
     1024
 91
        1
280
     0
281
     0
  0
CLASS
  1
ACMSECTIONSTANDARDANSI
  2
AmdtSectionSymStdANSI
  3
"Amdt_StdImp|Product Description: AutoCAD Mechanical|Company: Autodesk, Inc."
 90
     1024
 91
        1
280
     0
281
     0
  0
CLASS
  1
ACMCENTERLINESTANDARDANSI
  2
AmdtCenterLineStdANSI
  3
"Amdt_StdImp|Product Description: AutoCAD Mechanical|Company: Autodesk, Inc."
 90
     1024
 91
        1
280
     0
281
     0
  0
CLASS
  1
ACMTHREADLINESTANDARDANSI
  2
AmdtThreadLineStdANSI
  3
"Amdt_StdImp|Product Description: AutoCAD Mechanical|Company: Autodesk, Inc."
 90
     1024
 91
        1
280
     0
281
     0
  0
CLASS
  1
ACMNOTESTANDARDANSI
  2
AmdtNoteStdANSI
  3
"Amdt_StdImp|Product Description: AutoCAD Mechanical|Company: Autodesk, Inc."
 90
     1024
 91
        1
280
     0
281
     0
  0
CLASS
  1
ACMTAPERSTANDARDANSI
  2
AcmTaperStdANSI
  3
"Amdt_StdImp|Product Description: AutoCAD Mechanical|Company: Autodesk, Inc."
 90
     1024
 91
        1
280
     0
281
     0
  0
CLASS
  1
AMDTNOTETEMPLATEDB
  2
AmdtNoteTemplateDB
  3
AcmSymBB|Product Description: AutoCAD Mechanical|Company: Autodesk, Inc.
 90
     1024
 91
        6
280
     0
281
     0
  0
CLASS
  1
ACAMGLAYSTD
  2
AcAmgLayStd
  3
"AmgLay|Product Description: AutoCAD Mechanical|Company: Autodesk, Inc."
 90
     1024
 91
        1
280
     0
281
     0
  0
CLASS
  1
ACAMGDIMSTD
  2
AcAmgDimStd
  3
"AmgDim|Product Description: AutoCAD Mechanical|Company: Autodesk, Inc."
 90
     1024
 91
        1
280
     0
281
     0
  0
CLASS
  1
ACAMGHOLECHARTSTDANSI
  2
AcAmgHoleChartStdANSI
  3
AmgDim|Product Description: AutoCAD Mechanical|Company: Autodesk, Inc.
 90
     1024
 91
        1
280
     0
281
     0
  0
CLASS
  1
ACAMGTITLESTD
  2
AcAmgTitleStd
  3
"AmgTitle|Product Description: AutoCAD Mechanical|Company: Autodesk, Inc."
 90
     4095
 91
        1
280
     0
281
     0
  0
CLASS
  1
ACAMGFILTERDAT
  2
AcAmgFilterDat
  3
"AcadM|Product Description: AutoCAD Mechanical|Company: Autodesk, Inc."
 90
     1024
 91
        0
280
     0
281
     0
  0
CLASS
  1
DICTIONARYVAR
  2
AcDbDictionaryVar
  3
ObjectDBX Classes
 90
        0
 91
        5
280
     0
281
     0
  0
CLASS
  1
SCALE
  2
AcDbScale
  3
ObjectDBX Classes
 90
     1153
 91
       33
280
     0
281
     0
  0
CLASS
  1
MLEADERSTYLE
  2
AcDbMLeaderStyle
  3
ACDB_MLEADERSTYLE_CLASS
 90
     4095
 91
        1
280
     0
281
     0
  0
CLASS
  1
ACMANOOTATIONVIEWSTANDARDANSI
  2
AmdtAnViewStdANSI
  3
"Amdt_StdImp|Product Description: AutoCAD Mechanical|Company: Autodesk, Inc."
 90
     1024
 91
        1
280
     0
281
     0
  0
CLASS
  1
CAMSSTRUCTBTNSTATE
  2
StructBtnState
  3
DesignerAssemblies
 90
     1024
 91
        1
280
     0
281
     0
  0
CLASS
  1
CELLSTYLEMAP
  2
AcDbCellStyleMap
  3
ObjectDBX Classes
 90
     1152
 91
        2
280
     0
281
     0
  0
CLASS
  1
SORTENTSTABLE
  2
AcDbSortentsTable
  3
ObjectDBX Classes
 90
        0
 91
        1
280
     0
281
     0
  0
ENDSEC
  0
SECTION
  2
TABLES
  0
TABLE
  2
VPORT
  5
8
330
0
100
AcDbSymbolTable
 70
     1
  0
VPORT
  5
41
330
8
100
AcDbSymbolTableRecord
100
AcDbViewportTableRecord
  2
*Active
 70
     0
 10
0.0
 20
0.0
 11
1.0
 21
1.0
 12
717.0861779120553
 22
430.5389194099872
 13
0.0
 23
0.0
 14
1.0
 24
1.0
 15
0.0
 25
0.0
 16
0.0
 26
0.0
 36
1.0
 17
0.0
 27
0.0
 37
0.0
 40
422.997967556078
 41
1.645127118644067
 42
50.0
 43
0.0
 44
0.0
 50
0.0
 51
0.0
 71
     0
 72
   100
 73
     1
 74
     1
 75
     0
 76
     0
 77
     0
 78
     0
281
     0
 65
     0
110
0.0
120
0.0
130
0.0
111
1.0
121
0.0
131
0.0
112
0.0
122
1.0
132
0.0
 79
     0
146
0.0
  0
ENDTAB
  0
TABLE
  2
LTYPE
  5
5
330
0
100
AcDbSymbolTable
 70
    19
  0
LTYPE
  5
28
330
5
100
AcDbSymbolTableRecord
100
AcDbLinetypeTableRecord
  2
ByBlock
 70
     0
  3

 72
    65
 73
     0
 40
0.0
  0
LTYPE
  5
29
330
5
100
AcDbSymbolTableRecord
100
AcDbLinetypeTableRecord
  2
ByLayer
 70
     0
  3

 72
    65
 73
     0
 40
0.0
  0
LTYPE
  5
2A
330
5
100
AcDbSymbolTableRecord
100
AcDbLinetypeTableRecord
  2
CONTINUOUS
 70
     0
  3
Solid line
 72
    65
 73
     0
 40
0.0
  0
LTYPE
  5
3A
330
5
100
AcDbSymbolTableRecord
100
AcDbLinetypeTableRecord
  2
DASHED
 70
     0
  3
__ __ __ __ __ __ __ __ __ __ __ __ __ __ __
 72
    65
 73
     2
 40
3.5
 49
2.0
 74
     0
 49
-1.5
 74
     0
  0
LTYPE
  5
3B
330
5
100
AcDbSymbolTableRecord
100
AcDbLinetypeTableRecord
  2
CENTER
 70
     0
  3
____ _ ____ _ ____ _ ____ _ ____ _ ____ _ ____
 72
    65
 73
     4
 40
17.5
 49
13.0
 74
     0
 49
-1.5
 74
     0
 49
1.5
 74
     0
 49
-1.5
 74
     0
  0
LTYPE
  5
3C
330
5
100
AcDbSymbolTableRecord
100
AcDbLinetypeTableRecord
  2
PHANTOM
 70
     0
  3
_____ _ _ _____ _ _ _____ _ _ _____ _ _ ____  
 72
    65
 73
     6
 40
15.5
 49
8.0
 74
     0
 49
-1.5
 74
     0
 49
1.5
 74
     0
 49
-1.5
 74
     0
 49
1.5
 74
     0
 49
-1.5
 74
     0
  0
LTYPE
  5
3D
330
5
100
AcDbSymbolTableRecord
100
AcDbLinetypeTableRecord
  2
DOT
 70
     0
  3
. . . . . . . . . . . . . . . . . . . . . . . .
 72
    65
 73
     2
 40
0.25
 49
0.0
 74
     0
 49
-0.25
 74
     0
  0
LTYPE
  5
3E
330
5
100
AcDbSymbolTableRecord
100
AcDbLinetypeTableRecord
  2
HIDDEN
 70
     0
  3
__ __ __ __ __ __ __ __ __ __ __ __ __ __ __
 72
    65
 73
     2
 40
3.5
 49
2.0
 74
     0
 49
-1.5
 74
     0
  0
LTYPE
  5
2A2
330
5
100
AcDbSymbolTableRecord
100
AcDbLinetypeTableRecord
  2
PHANTOM2
 70
     0
  3
Phantom (.5x) ___ _ _ ___ _ _ ___ _ _ ___ _ _
 72
    65
 73
     6
 40
1.25
 49
0.625
 74
     0
 49
-0.125
 74
     0
 49
0.125
 74
     0
 49
-0.125
 74
     0
 49
0.125
 74
     0
 49
-0.125
 74
     0
  0
LTYPE
  5
2D7
330
5
100
AcDbSymbolTableRecord
100
AcDbLinetypeTableRecord
  2
AM_ISO02W050
 70
     0
  3
__ __ __ __ __ __ __ __ __ __ __ __ __ __ __
 72
    65
 73
     2
 40
7.5
 49
6.0
 74
     0
 49
-1.5
 74
     0
  0
LTYPE
  5
2D8
330
5
100
AcDbSymbolTableRecord
100
AcDbLinetypeTableRecord
  2
AM_ISO08W050
 70
     0
  3
____ . ____ . ____ . ____ . ____ . ____ . ____
 72
    65
 73
     4
 40
18.0
 49
12.0
 74
     0
 49
-1.5
 74
     0
 49
3.0
 74
     0
 49
-1.5
 74
     0
  0
LTYPE
  5
2D9
330
5
100
AcDbSymbolTableRecord
100
AcDbLinetypeTableRecord
  2
AM_ISO09W050
 70
     0
  3
_____ . . _____ . . _____ . . ____ .. ____
 72
    65
 73
     6
 40
22.5
 49
12.0
 74
     0
 49
-1.5
 74
     0
 49
3.0
 74
     0
 49
-1.5
 74
     0
 49
3.0
 74
     0
 49
-1.5
 74
     0
  0
LTYPE
  5
2DA
330
5
100
AcDbSymbolTableRecord
100
AcDbLinetypeTableRecord
  2
Amconstr
 70
     0
  3
_______________________
 72
    65
 73
     2
 40
9999.0
 49
9999.0
 74
     0
 49
0.0
 74
     0
  0
LTYPE
  5
2DB
330
5
100
AcDbSymbolTableRecord
100
AcDbLinetypeTableRecord
  2
AM_ISO08W050x2
 70
     0
  3
__ . __ . __ . __ . __ . __
 72
    65
 73
     4
 40
9.0
 49
6.0
 74
     0
 49
-0.75
 74
     0
 49
1.5
 74
     0
 49
-0.75
 74
     0
  0
LTYPE
  5
2DC
330
5
100
AcDbSymbolTableRecord
100
AcDbLinetypeTableRecord
  2
AM_ISO02W050x2
 70
     0
  3
 _ _ _ _ _ _ _ _ _ _ _ _
 72
    65
 73
     2
 40
3.75
 49
3.0
 74
     0
 49
-0.75
 74
     0
  0
LTYPE
  5
2DF
330
5
100
AcDbSymbolTableRecord
100
AcDbLinetypeTableRecord
  2
Amzigzag
 70
     0
  3
/\/-/\/-/\/-/\/-/\/-/\/
 72
    65
 73
     2
 40
11.0001
 49
0.0001
 74
     4
 75
   136
340
2DE
 46
0.04
 50
0.0
 44
0.0
 45
0.0
 49
-11.0
 74
     0
  0
LTYPE
  5
2E0
330
5
100
AcDbSymbolTableRecord
100
AcDbLinetypeTableRecord
  2
CENTER2
 70
     0
  3
Center (.5x) ___ _ ___ _ ___ _ ___ _ ___ _ ___
 72
    65
 73
     4
 40
1.125
 49
0.75
 74
     0
 49
-0.125
 74
     0
 49
0.125
 74
     0
 49
-0.125
 74
     0
  0
LTYPE
  5
2E1
330
5
100
AcDbSymbolTableRecord
100
AcDbLinetypeTableRecord
  2
HIDDEN2
 70
     0
  3
Hidden (.5x) _ _ _ _ _ _ _ _ _ _ _ _ _ _ _ _ _
 72
    65
 73
     2
 40
0.1875
 49
0.125
 74
     0
 49
-0.0625
 74
     0
  0
LTYPE
  5
2E2
330
5
100
AcDbSymbolTableRecord
100
AcDbLinetypeTableRecord
  2
Amzigzag2
 70
     0
  3
/\/-/\/-/\/-/\/-/\/-/\/
 72
    65
 73
     2
 40
0.4401
 49
0.0001
 74
     4
 75
   136
340
2DE
 46
0.0016
 50
0.0
 44
0.0
 45
0.0
 49
-0.4400000000000001
 74
     0
  0
LTYPE
  5
2F1
330
5
100
AcDbSymbolTableRecord
100
AcDbLinetypeTableRecord
  2
ACANSTGB
 70
     0
  3
__ . . __ . .
 72
    65
 73
     6
 40
0.35433070866
 49
0.15748031496
 74
     0
 49
-0.03937007874
 74
     0
 49
0.03937007874
 74
     0
 49
-0.03937007874
 74
     0
 49
0.03937007874
 74
     0
 49
-0.03937007874
 74
     0
  0
LTYPE
  5
2F2
330
5
100
AcDbSymbolTableRecord
100
AcDbLinetypeTableRecord
  2
ACANSTGL
 70
     0
  3
_ _ _ _ _
 72
    65
 73
     2
 40
0.11811023622
 49
0.07874015748
 74
     0
 49
-0.03937007874
 74
     0
  0
ENDTAB
  0
TABLE
  2
LAYER
  5
2
102
{ACAD_XDICTIONARY
360
3B9
102
}
330
0
100
AcDbSymbolTable
 70
     5
  0
LAYER
  5
25
102
{ACAD_XDICTIONARY
360
508
102
}
330
2
100
AcDbSymbolTableRecord
100
AcDbLayerTableRecord
  2
0
 70
     0
 62
     7
  6
CONTINUOUS
370
    -3
390
F
  0
LAYER
  5
3B7
102
{ACAD_XDICTIONARY
360
50A
102
}
330
2
100
AcDbSymbolTableRecord
100
AcDbLayerTableRecord
  2
AM_0
 70
     0
 62
     7
  6
CONTINUOUS
370
    30
390
F
1001
AcAecLayerStandard
1000

1000

  0
LAYER
  5
3BD
102
{ACAD_XDICTIONARY
360
50C
102
}
330
2
100
AcDbSymbolTableRecord
100
AcDbLayerTableRecord
  2
AM_5
 70
     0
 62
     3
  6
CONTINUOUS
370
    15
390
F
1001
AcAecLayerStandard
1000

1000

  0
LAYER
  5
44D
330
2
100
AcDbSymbolTableRecord
100
AcDbLayerTableRecord
  2
Defpoints
 70
     0
 62
     7
  6
CONTINUOUS
290
     0
370
    -3
390
F
  0
LAYER
  5
496
102
{ACAD_XDICTIONARY
360
50E
102
}
330
2
100
AcDbSymbolTableRecord
100
AcDbLayerTableRecord
  2
AM_CL
 70
     0
 62
     1
  6
Amconstr
370
    15
390
F
1001
AcAecLayerStandard
1000

1000

  0
ENDTAB
  0
TABLE
  2
STYLE
  5
3
330
0
100
AcDbSymbolTable
 70
     4
  0
STYLE
  5
26
330
3
100
AcDbSymbolTableRecord
100
AcDbTextStyleTableRecord
  2
STANDARD
 70
     0
 40
0.0
 41
1.0
 50
0.0
 71
     0
 42
0.2
  3
txt
  4
BIGFONT
  0
STYLE
  5
2DE
330
3
100
AcDbSymbolTableRecord
100
AcDbTextStyleTableRecord
  2

 70
     1
 40
0.0
 41
1.0
 50
0.0
 71
     0
 42
3.2
  3
genltshp.shx
  4

  0
STYLE
  5
2E3
330
3
100
AcDbSymbolTableRecord
100
AcDbTextStyleTableRecord
  2
ACANSTS
 70
     0
 40
1.0
 41
1.0
 50
0.0
 71
     0
 42
3.2
  3
romans.shx
  4
extfont.shx
  0
STYLE
  5
2F0
330
3
100
AcDbSymbolTableRecord
100
AcDbTextStyleTableRecord
  2
ACANSGDT
 70
     0
 40
0.0
 41
1.0
 50
0.0
 71
     0
 42
3.2
  3
amgdt.shx
  4

  0
ENDTAB
  0
TABLE
  2
VIEW
  5
6
330
0
100
AcDbSymbolTable
 70
     0
  0
ENDTAB
  0
TABLE
  2
UCS
  5
7
330
0
100
AcDbSymbolTable
 70
     0
  0
ENDTAB
  0
TABLE
  2
APPID
  5
9
330
0
100
AcDbSymbolTable
 70
    12
  0
APPID
  5
27
330
9
100
AcDbSymbolTableRecord
100
AcDbRegAppTableRecord
  2
ACAD
 70
     0
  0
APPID
  5
275
330
9
100
AcDbSymbolTableRecord
100
AcDbRegAppTableRecord
  2
MCAD_NO_VIS
 70
     0
  0
APPID
  5
276
330
9
100
AcDbSymbolTableRecord
100
AcDbRegAppTableRecord
  2
ACAD_TEMP_GRAPHIC
 70
     0
  0
APPID
  5
2A4
330
9
100
AcDbSymbolTableRecord
100
AcDbRegAppTableRecord
  2
AD_DRAW
 70
     0
  0
APPID
  5
2A7
330
9
100
AcDbSymbolTableRecord
100
AcDbRegAppTableRecord
  2
ACATTRIBSERVICES
 70
     0
  0
APPID
  5
2C8
330
9
100
AcDbSymbolTableRecord
100
AcDbRegAppTableRecord
  2
DESIGNERASSEMBLIES
 70
     0
  0
APPID
  5
2CE
330
9
100
AcDbSymbolTableRecord
100
AcDbRegAppTableRecord
  2
ACADM_DIM_EDIT
 70
     0
  0
APPID
  5
2CF
330
9
100
AcDbSymbolTableRecord
100
AcDbRegAppTableRecord
  2
AMDT_DM_ADJ
 70
     0
  0
APPID
  5
33A
330
9
100
AcDbSymbolTableRecord
100
AcDbRegAppTableRecord
  2
ACAD_MLEADERVER
 70
     0
  0
APPID
  5
3B8
330
9
100
AcDbSymbolTableRecord
100
AcDbRegAppTableRecord
  2
AcAecLayerStandard
 70
     0
  0
APPID
  5
463
330
9
100
AcDbSymbolTableRecord
100
AcDbRegAppTableRecord
  2
ACAD_DSTYLE_DIMINSPECT
 70
     0
  0
APPID
  5
53B
330
9
100
AcDbSymbolTableRecord
100
AcDbRegAppTableRecord
  2
ACAD_DSTYLE_DIMARC_LENGTH_SYMBOL
 70
     0
  0
ENDTAB
  0
TABLE
  2
DIMSTYLE
  5
A
330
0
100
AcDbSymbolTable
 70
     8
100
AcDbDimStyleTable
 71
     1
340
26E
  0
DIMSTYLE
105
26E
330
A
100
AcDbSymbolTableRecord
100
AcDbDimStyleTableRecord
  2
Standard
 70
     0
340
26
  0
DIMSTYLE
105
2FE
330
A
100
AcDbSymbolTableRecord
100
AcDbDimStyleTableRecord
  2
AM_ANSI
 70
     0
  4
mm
 41
0.1
 42
0.05
 43
0.5
 44
0.1
 47
0.1
 48
0.1
 78
     7
 79
     2
140
0.12
141
0.0
146
0.71
147
0.06
176
   256
177
   256
178
     2
274
     4
284
     7
340
26
371
    -1
372
    -1
1001
ACAD_DSTYLE_DIMARC_LENGTH_SYMBOL
1070
   379
1070
     1
  0
DIMSTYLE
105
2FF
330
A
100
AcDbSymbolTableRecord
100
AcDbDimStyleTableRecord
  2
AM_ANSI$3
 70
     0
  4
mm
 41
0.1
 42
0.05
 43
0.5
 44
0.1
 47
0.1
 48
0.1
 78
     7
 79
     2
140
0.12
141
0.0
146
0.71
147
0.06
176
   256
177
   256
178
     2
274
     4
284
     7
288
     1
289
     0
340
26
371
    -1
372
    -1
1001
ACAD_DSTYLE_DIMARC_LENGTH_SYMBOL
1070
   379
1070
     1
  0
DIMSTYLE
105
300
330
A
100
AcDbSymbolTableRecord
100
AcDbDimStyleTableRecord
  2
AM_ANSI$4
 70
     0
  4
mm
 41
0.1
 42
0.05
 43
0.5
 44
0.1
 47
0.1
 48
0.1
 78
     7
 79
     2
140
0.12
141
0.0
146
0.71
147
0.06
176
   256
177
   256
178
     2
274
     4
284
     7
288
     1
289
     0
340
26
371
    -1
372
    -1
1001
ACAD_DSTYLE_DIMARC_LENGTH_SYMBOL
1070
   379
1070
     1
  0
DIMSTYLE
105
301
330
A
100
AcDbSymbolTableRecord
100
AcDbDimStyleTableRecord
  2
AM_ANSI$7
 70
     0
  4
mm
 41
0.1
 42
0.05
 43
0.5
 44
0.1
 47
0.1
 48
0.1
 78
     7
 79
     2
140
0.24
141
0.0
146
0.71
147
0.06
176
   256
177
   256
178
     2
274
     4
284
     7
340
26
371
    -1
372
    -1
1001
ACAD_DSTYLE_DIMARC_LENGTH_SYMBOL
1070
   379
1070
     1
  0
DIMSTYLE
105
302
330
A
100
AcDbSymbolTableRecord
100
AcDbDimStyleTableRecord
  2
AM_ANSI$SF
 70
     0
  4
mm
 41
0.1
 42
0.05
 43
0.5
 44
0.1
 47
0.1
 48
0.1
 75
     1
 76
     1
 78
     7
 79
     2
140
0.12
141
0.0
146
0.71
147
0.06
176
   256
177
   256
178
     2
274
     4
284
     7
340
26
371
    -1
372
    -1
1001
ACAD_DSTYLE_DIMARC_LENGTH_SYMBOL
1070
   379
1070
     1
  0
DIMSTYLE
105
307
330
A
100
AcDbSymbolTableRecord
100
AcDbDimStyleTableRecord
  2
AM_ANSI$SH
 70
     0
  4
mm
 41
0.1
 42
0.05
 43
0.5
 44
0.1
 47
0.1
 48
0.1
 75
     1
 76
     1
 78
     7
 79
     2
140
0.12
141
0.0
146
0.71
147
0.06
173
     1
176
   256
177
   256
178
     2
274
     4
284
     7
340
26
343
303
371
    -1
372
    -1
1001
ACAD_DSTYLE_DIMARC_LENGTH_SYMBOL
1070
   379
1070
     1
  0
DIMSTYLE
105
44A
330
A
100
AcDbSymbolTableRecord
100
AcDbDimStyleTableRecord
  2
Standard$0
 70
     0
340
26
  0
ENDTAB
  0
TABLE
  2
BLOCK_RECORD
  5
1
330
0
100
AcDbSymbolTable
 70
    27
  0
BLOCK_RECORD
  5
36
102
{ACAD_XDICTIONARY
360
505
102
}
330
1
100
AcDbSymbolTableRecord
100
AcDbBlockTableRecord
  2
*Model_Space
340
39
  0
BLOCK_RECORD
  5
32
330
1
100
AcDbSymbolTableRecord
100
AcDbBlockTableRecord
  2
*Paper_Space
340
35
  0
BLOCK_RECORD
  5
42
330
1
100
AcDbSymbolTableRecord
100
AcDbBlockTableRecord
  2
KOZU0001
340
0
102
{BLKREFS
331
244
102
}
  0
BLOCK_RECORD
  5
49
330
1
100
AcDbSymbolTableRecord
100
AcDbBlockTableRecord
  2
KOZU0002
340
0
102
{BLKREFS
331
245
102
}
  0
BLOCK_RECORD
  5
50
330
1
100
AcDbSymbolTableRecord
100
AcDbBlockTableRecord
  2
KOZU0003
340
0
102
{BLKREFS
331
246
102
}
  0
BLOCK_RECORD
  5
57
330
1
100
AcDbSymbolTableRecord
100
AcDbBlockTableRecord
  2
KOZU0004
340
0
102
{BLKREFS
331
247
102
}
  0
BLOCK_RECORD
  5
5E
330
1
100
AcDbSymbolTableRecord
100
AcDbBlockTableRecord
  2
KOZU0005
340
0
102
{BLKREFS
331
248
102
}
  0
BLOCK_RECORD
  5
65
330
1
100
AcDbSymbolTableRecord
100
AcDbBlockTableRecord
  2
KOZU0006
340
0
102
{BLKREFS
331
249
102
}
  0
BLOCK_RECORD
  5
6C
330
1
100
AcDbSymbolTableRecord
100
AcDbBlockTableRecord
  2
KOZU0007
340
0
102
{BLKREFS
331
24A
102
}
  0
BLOCK_RECORD
  5
73
330
1
100
AcDbSymbolTableRecord
100
AcDbBlockTableRecord
  2
KOZU0008
340
0
102
{BLKREFS
331
24B
102
}
  0
BLOCK_RECORD
  5
7A
330
1
100
AcDbSymbolTableRecord
100
AcDbBlockTableRecord
  2
KOZU0009
340
0
102
{BLKREFS
331
24C
102
}
  0
BLOCK_RECORD
  5
81
330
1
100
AcDbSymbolTableRecord
100
AcDbBlockTableRecord
  2
KOZU0010
340
0
102
{BLKREFS
331
24D
102
}
  0
BLOCK_RECORD
  5
88
330
1
100
AcDbSymbolTableRecord
100
AcDbBlockTableRecord
  2
KOZU0011
340
0
102
{BLKREFS
331
24E
102
}
  0
BLOCK_RECORD
  5
8F
330
1
100
AcDbSymbolTableRecord
100
AcDbBlockTableRecord
  2
KOZU0012
340
0
102
{BLKREFS
331
24F
102
}
  0
BLOCK_RECORD
  5
96
330
1
100
AcDbSymbolTableRecord
100
AcDbBlockTableRecord
  2
KOZU0013
340
0
102
{BLKREFS
331
250
102
}
  0
BLOCK_RECORD
  5
9D
330
1
100
AcDbSymbolTableRecord
100
AcDbBlockTableRecord
  2
KOZU0014
340
0
102
{BLKREFS
331
251
102
}
  0
BLOCK_RECORD
  5
A4
330
1
100
AcDbSymbolTableRecord
100
AcDbBlockTableRecord
  2
KOZU0015
340
0
102
{BLKREFS
331
252
102
}
  0
BLOCK_RECORD
  5
AB
330
1
100
AcDbSymbolTableRecord
100
AcDbBlockTableRecord
  2
KOZU0016
340
0
102
{BLKREFS
331
253
102
}
  0
BLOCK_RECORD
  5
B2
330
1
100
AcDbSymbolTableRecord
100
AcDbBlockTableRecord
  2
KOZU0017
340
0
102
{BLKREFS
331
254
102
}
  0
BLOCK_RECORD
  5
B9
330
1
100
AcDbSymbolTableRecord
100
AcDbBlockTableRecord
  2
KOZU0018
340
0
102
{BLKREFS
331
255
102
}
  0
BLOCK_RECORD
  5
C0
330
1
100
AcDbSymbolTableRecord
100
AcDbBlockTableRecord
  2
KOZU0019
340
0
102
{BLKREFS
331
256
102
}
  0
BLOCK_RECORD
  5
C7
330
1
100
AcDbSymbolTableRecord
100
AcDbBlockTableRecord
  2
KOZU0020
340
0
102
{BLKREFS
331
257
102
}
  0
BLOCK_RECORD
  5
CE
330
1
100
AcDbSymbolTableRecord
100
AcDbBlockTableRecord
  2
KOZU0021
340
0
102
{BLKREFS
331
258
102
}
  0
BLOCK_RECORD
  5
D5
330
1
100
AcDbSymbolTableRecord
100
AcDbBlockTableRecord
  2
KOZU0022
340
0
102
{BLKREFS
331
259
102
}
  0
BLOCK_RECORD
  5
DC
330
1
100
AcDbSymbolTableRecord
100
AcDbBlockTableRecord
  2
KOZU0023
340
0
102
{BLKREFS
331
25A
102
}
  0
BLOCK_RECORD
  5
E3
330
1
100
AcDbSymbolTableRecord
100
AcDbBlockTableRecord
  2
KOZU0024
340
0
102
{BLKREFS
331
25B
102
}
  0
BLOCK_RECORD
  5
EA
330
1
100
AcDbSymbolTableRecord
100
AcDbBlockTableRecord
  2
KOZU0025
340
0
102
{BLKREFS
331
26C
102
}
  0
BLOCK_RECORD
  5
303
330
1
100
AcDbSymbolTableRecord
100
AcDbBlockTableRecord
  2
GENAXEH
340
0
  0
ENDTAB
  0
ENDSEC
  0
SECTION
  2
BLOCKS
  0
BLOCK
  5
37
330
36
100
AcDbEntity
  8
0
100
AcDbBlockBegin
  2
*Model_Space
 70
     0
 10
0.0
 20
0.0
 30
0.0
  3
*Model_Space
  1

  0
ENDBLK
  5
38
330
36
100
AcDbEntity
  8
0
100
AcDbBlockEnd
  0
BLOCK
  5
33
330
32
100
AcDbEntity
 67
     1
  8
0
100
AcDbBlockBegin
  2
*Paper_Space
 70
     0
 10
0.0
 20
0.0
 30
0.0
  3
*Paper_Space
  1

  0
ENDBLK
  5
34
330
32
100
AcDbEntity
 67
     1
  8
0
100
AcDbBlockEnd
  0
BLOCK
  5
43
330
42
100
AcDbEntity
  8
0
100
AcDbBlockBegin
  2
KOZU0001
 70
     0
 10
0.0
 20
0.0
 30
0.0
  3
KOZU0001
  1

  0
POLYLINE
  5
44
330
42
100
AcDbEntity
  8
0
  6
Continuous
 62
     7
100
AcDb2dPolyline
 66
     1
 10
0.0
 20
0.0
 30
0.0
 70
     1
 40
0.4000000100000001
 41
0.4000000100000001
  0
VERTEX
  5
45
330
44
100
AcDbEntity
  8
0
  6
Continuous
 62
     7
100
AcDbVertex
100
AcDb2dVertex
 10
-0.2
 20
0.0
 30
0.0
 42
1.0
  0
VERTEX
  5
46
330
44
100
AcDbEntity
  8
0
  6
Continuous
 62
     7
100
AcDbVertex
100
AcDb2dVertex
 10
0.2
 20
0.0
 30
0.0
 42
1.0
  0
SEQEND
  5
47
330
44
100
AcDbEntity
  8
0
  6
Continuous
 62
     7
  0
ENDBLK
  5
48
330
42
100
AcDbEntity
  8
0
100
AcDbBlockEnd
  0
BLOCK
  5
4A
330
49
100
AcDbEntity
  8
0
100
AcDbBlockBegin
  2
KOZU0002
 70
     0
 10
0.0
 20
0.0
 30
0.0
  3
KOZU0002
  1

  0
POLYLINE
  5
4B
330
49
100
AcDbEntity
  8
0
  6
Continuous
 62
     7
100
AcDb2dPolyline
 66
     1
 10
0.0
 20
0.0
 30
0.0
 70
     1
 40
0.4000000100000001
 41
0.4000000100000001
  0
VERTEX
  5
4C
330
4B
100
AcDbEntity
  8
0
  6
Continuous
 62
     7
100
AcDbVertex
100
AcDb2dVertex
 10
-0.2
 20
0.0
 30
0.0
 42
1.0
  0
VERTEX
  5
4D
330
4B
100
AcDbEntity
  8
0
  6
Continuous
 62
     7
100
AcDbVertex
100
AcDb2dVertex
 10
0.2
 20
0.0
 30
0.0
 42
1.0
  0
SEQEND
  5
4E
330
4B
100
AcDbEntity
  8
0
  6
Continuous
 62
     7
  0
ENDBLK
  5
4F
330
49
100
AcDbEntity
  8
0
100
AcDbBlockEnd
  0
BLOCK
  5
51
330
50
100
AcDbEntity
  8
0
100
AcDbBlockBegin
  2
KOZU0003
 70
     0
 10
0.0
 20
0.0
 30
0.0
  3
KOZU0003
  1

  0
POLYLINE
  5
52
330
50
100
AcDbEntity
  8
0
  6
Continuous
 62
     7
100
AcDb2dPolyline
 66
     1
 10
0.0
 20
0.0
 30
0.0
 70
     1
 40
0.4000000100000001
 41
0.4000000100000001
  0
VERTEX
  5
53
330
52
100
AcDbEntity
  8
0
  6
Continuous
 62
     7
100
AcDbVertex
100
AcDb2dVertex
 10
-0.2
 20
0.0
 30
0.0
 42
1.0
  0
VERTEX
  5
54
330
52
100
AcDbEntity
  8
0
  6
Continuous
 62
     7
100
AcDbVertex
100
AcDb2dVertex
 10
0.2
 20
0.0
 30
0.0
 42
1.0
  0
SEQEND
  5
55
330
52
100
AcDbEntity
  8
0
  6
Continuous
 62
     7
  0
ENDBLK
  5
56
330
50
100
AcDbEntity
  8
0
100
AcDbBlockEnd
  0
BLOCK
  5
58
330
57
100
AcDbEntity
  8
0
100
AcDbBlockBegin
  2
KOZU0004
 70
     0
 10
0.0
 20
0.0
 30
0.0
  3
KOZU0004
  1

  0
POLYLINE
  5
59
330
57
100
AcDbEntity
  8
0
  6
Continuous
 62
     7
100
AcDb2dPolyline
 66
     1
 10
0.0
 20
0.0
 30
0.0
 70
     1
 40
0.4000000100000001
 41
0.4000000100000001
  0
VERTEX
  5
5A
330
59
100
AcDbEntity
  8
0
  6
Continuous
 62
     7
100
AcDbVertex
100
AcDb2dVertex
 10
-0.2
 20
0.0
 30
0.0
 42
1.0
  0
VERTEX
  5
5B
330
59
100
AcDbEntity
  8
0
  6
Continuous
 62
     7
100
AcDbVertex
100
AcDb2dVertex
 10
0.2
 20
0.0
 30
0.0
 42
1.0
  0
SEQEND
  5
5C
330
59
100
AcDbEntity
  8
0
  6
Continuous
 62
     7
  0
ENDBLK
  5
5D
330
57
100
AcDbEntity
  8
0
100
AcDbBlockEnd
  0
BLOCK
  5
5F
330
5E
100
AcDbEntity
  8
0
100
AcDbBlockBegin
  2
KOZU0005
 70
     0
 10
0.0
 20
0.0
 30
0.0
  3
KOZU0005
  1

  0
POLYLINE
  5
60
330
5E
100
AcDbEntity
  8
0
  6
Continuous
 62
     7
100
AcDb2dPolyline
 66
     1
 10
0.0
 20
0.0
 30
0.0
 70
     1
 40
0.4000000100000001
 41
0.4000000100000001
  0
VERTEX
  5
61
330
60
100
AcDbEntity
  8
0
  6
Continuous
 62
     7
100
AcDbVertex
100
AcDb2dVertex
 10
-0.2
 20
0.0
 30
0.0
 42
1.0
  0
VERTEX
  5
62
330
60
100
AcDbEntity
  8
0
  6
Continuous
 62
     7
100
AcDbVertex
100
AcDb2dVertex
 10
0.2
 20
0.0
 30
0.0
 42
1.0
  0
SEQEND
  5
63
330
60
100
AcDbEntity
  8
0
  6
Continuous
 62
     7
  0
ENDBLK
  5
64
330
5E
100
AcDbEntity
  8
0
100
AcDbBlockEnd
  0
BLOCK
  5
66
330
65
100
AcDbEntity
  8
0
100
AcDbBlockBegin
  2
KOZU0006
 70
     0
 10
0.0
 20
0.0
 30
0.0
  3
KOZU0006
  1

  0
POLYLINE
  5
67
330
65
100
AcDbEntity
  8
0
  6
Continuous
 62
     7
100
AcDb2dPolyline
 66
     1
 10
0.0
 20
0.0
 30
0.0
 70
     1
 40
0.4000000100000001
 41
0.4000000100000001
  0
VERTEX
  5
68
330
67
100
AcDbEntity
  8
0
  6
Continuous
 62
     7
100
AcDbVertex
100
AcDb2dVertex
 10
-0.2
 20
0.0
 30
0.0
 42
1.0
  0
VERTEX
  5
69
330
67
100
AcDbEntity
  8
0
  6
Continuous
 62
     7
100
AcDbVertex
100
AcDb2dVertex
 10
0.2
 20
0.0
 30
0.0
 42
1.0
  0
SEQEND
  5
6A
330
67
100
AcDbEntity
  8
0
  6
Continuous
 62
     7
  0
ENDBLK
  5
6B
330
65
100
AcDbEntity
  8
0
100
AcDbBlockEnd
  0
BLOCK
  5
6D
330
6C
100
AcDbEntity
  8
0
100
AcDbBlockBegin
  2
KOZU0007
 70
     0
 10
0.0
 20
0.0
 30
0.0
  3
KOZU0007
  1

  0
POLYLINE
  5
6E
330
6C
100
AcDbEntity
  8
0
  6
Continuous
 62
     7
100
AcDb2dPolyline
 66
     1
 10
0.0
 20
0.0
 30
0.0
 70
     1
 40
0.4000000100000001
 41
0.4000000100000001
  0
VERTEX
  5
6F
330
6E
100
AcDbEntity
  8
0
  6
Continuous
 62
     7
100
AcDbVertex
100
AcDb2dVertex
 10
-0.2
 20
0.0
 30
0.0
 42
1.0
  0
VERTEX
  5
70
330
6E
100
AcDbEntity
  8
0
  6
Continuous
 62
     7
100
AcDbVertex
100
AcDb2dVertex
 10
0.2
 20
0.0
 30
0.0
 42
1.0
  0
SEQEND
  5
71
330
6E
100
AcDbEntity
  8
0
  6
Continuous
 62
     7
  0
ENDBLK
  5
72
330
6C
100
AcDbEntity
  8
0
100
AcDbBlockEnd
  0
BLOCK
  5
74
330
73
100
AcDbEntity
  8
0
100
AcDbBlockBegin
  2
KOZU0008
 70
     0
 10
0.0
 20
0.0
 30
0.0
  3
KOZU0008
  1

  0
POLYLINE
  5
75
330
73
100
AcDbEntity
  8
0
  6
Continuous
 62
     7
100
AcDb2dPolyline
 66
     1
 10
0.0
 20
0.0
 30
0.0
 70
     1
 40
0.4000000100000001
 41
0.4000000100000001
  0
VERTEX
  5
76
330
75
100
AcDbEntity
  8
0
  6
Continuous
 62
     7
100
AcDbVertex
100
AcDb2dVertex
 10
-0.2
 20
0.0
 30
0.0
 42
1.0
  0
VERTEX
  5
77
330
75
100
AcDbEntity
  8
0
  6
Continuous
 62
     7
100
AcDbVertex
100
AcDb2dVertex
 10
0.2
 20
0.0
 30
0.0
 42
1.0
  0
SEQEND
  5
78
330
75
100
AcDbEntity
  8
0
  6
Continuous
 62
     7
  0
ENDBLK
  5
79
330
73
100
AcDbEntity
  8
0
100
AcDbBlockEnd
  0
BLOCK
  5
7B
330
7A
100
AcDbEntity
  8
0
100
AcDbBlockBegin
  2
KOZU0009
 70
     0
 10
0.0
 20
0.0
 30
0.0
  3
KOZU0009
  1

  0
POLYLINE
  5
7C
330
7A
100
AcDbEntity
  8
0
  6
Continuous
 62
     7
100
AcDb2dPolyline
 66
     1
 10
0.0
 20
0.0
 30
0.0
 70
     1
 40
0.4000000100000001
 41
0.4000000100000001
  0
VERTEX
  5
7D
330
7C
100
AcDbEntity
  8
0
  6
Continuous
 62
     7
100
AcDbVertex
100
AcDb2dVertex
 10
-0.2
 20
0.0
 30
0.0
 42
1.0
  0
VERTEX
  5
7E
330
7C
100
AcDbEntity
  8
0
  6
Continuous
 62
     7
100
AcDbVertex
100
AcDb2dVertex
 10
0.2
 20
0.0
 30
0.0
 42
1.0
  0
SEQEND
  5
7F
330
7C
100
AcDbEntity
  8
0
  6
Continuous
 62
     7
  0
ENDBLK
  5
80
330
7A
100
AcDbEntity
  8
0
100
AcDbBlockEnd
  0
BLOCK
  5
82
330
81
100
AcDbEntity
  8
0
100
AcDbBlockBegin
  2
KOZU0010
 70
     0
 10
0.0
 20
0.0
 30
0.0
  3
KOZU0010
  1

  0
POLYLINE
  5
83
330
81
100
AcDbEntity
  8
0
  6
Continuous
 62
     7
100
AcDb2dPolyline
 66
     1
 10
0.0
 20
0.0
 30
0.0
 70
     1
 40
0.4000000100000001
 41
0.4000000100000001
  0
VERTEX
  5
84
330
83
100
AcDbEntity
  8
0
  6
Continuous
 62
     7
100
AcDbVertex
100
AcDb2dVertex
 10
-0.2
 20
0.0
 30
0.0
 42
1.0
  0
VERTEX
  5
85
330
83
100
AcDbEntity
  8
0
  6
Continuous
 62
     7
100
AcDbVertex
100
AcDb2dVertex
 10
0.2
 20
0.0
 30
0.0
 42
1.0
  0
SEQEND
  5
86
330
83
100
AcDbEntity
  8
0
  6
Continuous
 62
     7
  0
ENDBLK
  5
87
330
81
100
AcDbEntity
  8
0
100
AcDbBlockEnd
  0
BLOCK
  5
89
330
88
100
AcDbEntity
  8
0
100
AcDbBlockBegin
  2
KOZU0011
 70
     0
 10
0.0
 20
0.0
 30
0.0
  3
KOZU0011
  1

  0
POLYLINE
  5
8A
330
88
100
AcDbEntity
  8
0
  6
Continuous
 62
     7
100
AcDb2dPolyline
 66
     1
 10
0.0
 20
0.0
 30
0.0
 70
     1
 40
0.4000000100000001
 41
0.4000000100000001
  0
VERTEX
  5
8B
330
8A
100
AcDbEntity
  8
0
  6
Continuous
 62
     7
100
AcDbVertex
100
AcDb2dVertex
 10
-0.2
 20
0.0
 30
0.0
 42
1.0
  0
VERTEX
  5
8C
330
8A
100
AcDbEntity
  8
0
  6
Continuous
 62
     7
100
AcDbVertex
100
AcDb2dVertex
 10
0.2
 20
0.0
 30
0.0
 42
1.0
  0
SEQEND
  5
8D
330
8A
100
AcDbEntity
  8
0
  6
Continuous
 62
     7
  0
ENDBLK
  5
8E
330
88
100
AcDbEntity
  8
0
100
AcDbBlockEnd
  0
BLOCK
  5
90
330
8F
100
AcDbEntity
  8
0
100
AcDbBlockBegin
  2
KOZU0012
 70
     0
 10
0.0
 20
0.0
 30
0.0
  3
KOZU0012
  1

  0
POLYLINE
  5
91
330
8F
100
AcDbEntity
  8
0
  6
Continuous
 62
     7
100
AcDb2dPolyline
 66
     1
 10
0.0
 20
0.0
 30
0.0
 70
     1
 40
0.4000000100000001
 41
0.4000000100000001
  0
VERTEX
  5
92
330
91
100
AcDbEntity
  8
0
  6
Continuous
 62
     7
100
AcDbVertex
100
AcDb2dVertex
 10
-0.2
 20
0.0
 30
0.0
 42
1.0
  0
VERTEX
  5
93
330
91
100
AcDbEntity
  8
0
  6
Continuous
 62
     7
100
AcDbVertex
100
AcDb2dVertex
 10
0.2
 20
0.0
 30
0.0
 42
1.0
  0
SEQEND
  5
94
330
91
100
AcDbEntity
  8
0
  6
Continuous
 62
     7
  0
ENDBLK
  5
95
330
8F
100
AcDbEntity
  8
0
100
AcDbBlockEnd
  0
BLOCK
  5
97
330
96
100
AcDbEntity
  8
0
100
AcDbBlockBegin
  2
KOZU0013
 70
     0
 10
0.0
 20
0.0
 30
0.0
  3
KOZU0013
  1

  0
POLYLINE
  5
98
330
96
100
AcDbEntity
  8
0
  6
Continuous
 62
     7
100
AcDb2dPolyline
 66
     1
 10
0.0
 20
0.0
 30
0.0
 70
     1
 40
0.4000000100000001
 41
0.4000000100000001
  0
VERTEX
  5
99
330
98
100
AcDbEntity
  8
0
  6
Continuous
 62
     7
100
AcDbVertex
100
AcDb2dVertex
 10
-0.2
 20
0.0
 30
0.0
 42
1.0
  0
VERTEX
  5
9A
330
98
100
AcDbEntity
  8
0
  6
Continuous
 62
     7
100
AcDbVertex
100
AcDb2dVertex
 10
0.2
 20
0.0
 30
0.0
 42
1.0
  0
SEQEND
  5
9B
330
98
100
AcDbEntity
  8
0
  6
Continuous
 62
     7
  0
ENDBLK
  5
9C
330
96
100
AcDbEntity
  8
0
100
AcDbBlockEnd
  0
BLOCK
  5
9E
330
9D
100
AcDbEntity
  8
0
100
AcDbBlockBegin
  2
KOZU0014
 70
     0
 10
0.0
 20
0.0
 30
0.0
  3
KOZU0014
  1

  0
POLYLINE
  5
9F
330
9D
100
AcDbEntity
  8
0
  6
Continuous
 62
     7
100
AcDb2dPolyline
 66
     1
 10
0.0
 20
0.0
 30
0.0
 70
     1
 40
0.4000000100000001
 41
0.4000000100000001
  0
VERTEX
  5
A0
330
9F
100
AcDbEntity
  8
0
  6
Continuous
 62
     7
100
AcDbVertex
100
AcDb2dVertex
 10
-0.2
 20
0.0
 30
0.0
 42
1.0
  0
VERTEX
  5
A1
330
9F
100
AcDbEntity
  8
0
  6
Continuous
 62
     7
100
AcDbVertex
100
AcDb2dVertex
 10
0.2
 20
0.0
 30
0.0
 42
1.0
  0
SEQEND
  5
A2
330
9F
100
AcDbEntity
  8
0
  6
Continuous
 62
     7
  0
ENDBLK
  5
A3
330
9D
100
AcDbEntity
  8
0
100
AcDbBlockEnd
  0
BLOCK
  5
A5
330
A4
100
AcDbEntity
  8
0
100
AcDbBlockBegin
  2
KOZU0015
 70
     0
 10
0.0
 20
0.0
 30
0.0
  3
KOZU0015
  1

  0
POLYLINE
  5
A6
330
A4
100
AcDbEntity
  8
0
  6
Continuous
 62
     7
100
AcDb2dPolyline
 66
     1
 10
0.0
 20
0.0
 30
0.0
 70
     1
 40
0.4000000100000001
 41
0.4000000100000001
  0
VERTEX
  5
A7
330
A6
100
AcDbEntity
  8
0
  6
Continuous
 62
     7
100
AcDbVertex
100
AcDb2dVertex
 10
-0.2
 20
0.0
 30
0.0
 42
1.0
  0
VERTEX
  5
A8
330
A6
100
AcDbEntity
  8
0
  6
Continuous
 62
     7
100
AcDbVertex
100
AcDb2dVertex
 10
0.2
 20
0.0
 30
0.0
 42
1.0
  0
SEQEND
  5
A9
330
A6
100
AcDbEntity
  8
0
  6
Continuous
 62
     7
  0
ENDBLK
  5
AA
330
A4
100
AcDbEntity
  8
0
100
AcDbBlockEnd
  0
BLOCK
  5
AC
330
AB
100
AcDbEntity
  8
0
100
AcDbBlockBegin
  2
KOZU0016
 70
     0
 10
0.0
 20
0.0
 30
0.0
  3
KOZU0016
  1

  0
POLYLINE
  5
AD
330
AB
100
AcDbEntity
  8
0
  6
Continuous
 62
     7
100
AcDb2dPolyline
 66
     1
 10
0.0
 20
0.0
 30
0.0
 70
     1
 40
0.4000000100000001
 41
0.4000000100000001
  0
VERTEX
  5
AE
330
AD
100
AcDbEntity
  8
0
  6
Continuous
 62
     7
100
AcDbVertex
100
AcDb2dVertex
 10
-0.2
 20
0.0
 30
0.0
 42
1.0
  0
VERTEX
  5
AF
330
AD
100
AcDbEntity
  8
0
  6
Continuous
 62
     7
100
AcDbVertex
100
AcDb2dVertex
 10
0.2
 20
0.0
 30
0.0
 42
1.0
  0
SEQEND
  5
B0
330
AD
100
AcDbEntity
  8
0
  6
Continuous
 62
     7
  0
ENDBLK
  5
B1
330
AB
100
AcDbEntity
  8
0
100
AcDbBlockEnd
  0
BLOCK
  5
B3
330
B2
100
AcDbEntity
  8
0
100
AcDbBlockBegin
  2
KOZU0017
 70
     0
 10
0.0
 20
0.0
 30
0.0
  3
KOZU0017
  1

  0
POLYLINE
  5
B4
330
B2
100
AcDbEntity
  8
0
  6
Continuous
 62
     7
100
AcDb2dPolyline
 66
     1
 10
0.0
 20
0.0
 30
0.0
 70
     1
 40
0.4000000100000001
 41
0.4000000100000001
  0
VERTEX
  5
B5
330
B4
100
AcDbEntity
  8
0
  6
Continuous
 62
     7
100
AcDbVertex
100
AcDb2dVertex
 10
-0.2
 20
0.0
 30
0.0
 42
1.0
  0
VERTEX
  5
B6
330
B4
100
AcDbEntity
  8
0
  6
Continuous
 62
     7
100
AcDbVertex
100
AcDb2dVertex
 10
0.2
 20
0.0
 30
0.0
 42
1.0
  0
SEQEND
  5
B7
330
B4
100
AcDbEntity
  8
0
  6
Continuous
 62
     7
  0
ENDBLK
  5
B8
330
B2
100
AcDbEntity
  8
0
100
AcDbBlockEnd
  0
BLOCK
  5
BA
330
B9
100
AcDbEntity
  8
0
100
AcDbBlockBegin
  2
KOZU0018
 70
     0
 10
0.0
 20
0.0
 30
0.0
  3
KOZU0018
  1

  0
POLYLINE
  5
BB
330
B9
100
AcDbEntity
  8
0
  6
Continuous
 62
     7
100
AcDb2dPolyline
 66
     1
 10
0.0
 20
0.0
 30
0.0
 70
     1
 40
0.4000000100000001
 41
0.4000000100000001
  0
VERTEX
  5
BC
330
BB
100
AcDbEntity
  8
0
  6
Continuous
 62
     7
100
AcDbVertex
100
AcDb2dVertex
 10
-0.2
 20
0.0
 30
0.0
 42
1.0
  0
VERTEX
  5
BD
330
BB
100
AcDbEntity
  8
0
  6
Continuous
 62
     7
100
AcDbVertex
100
AcDb2dVertex
 10
0.2
 20
0.0
 30
0.0
 42
1.0
  0
SEQEND
  5
BE
330
BB
100
AcDbEntity
  8
0
  6
Continuous
 62
     7
  0
ENDBLK
  5
BF
330
B9
100
AcDbEntity
  8
0
100
AcDbBlockEnd
  0
BLOCK
  5
C1
330
C0
100
AcDbEntity
  8
0
100
AcDbBlockBegin
  2
KOZU0019
 70
     0
 10
0.0
 20
0.0
 30
0.0
  3
KOZU0019
  1

  0
POLYLINE
  5
C2
330
C0
100
AcDbEntity
  8
0
  6
Continuous
 62
     7
100
AcDb2dPolyline
 66
     1
 10
0.0
 20
0.0
 30
0.0
 70
     1
 40
0.4000000100000001
 41
0.4000000100000001
  0
VERTEX
  5
C3
330
C2
100
AcDbEntity
  8
0
  6
Continuous
 62
     7
100
AcDbVertex
100
AcDb2dVertex
 10
-0.2
 20
0.0
 30
0.0
 42
1.0
  0
VERTEX
  5
C4
330
C2
100
AcDbEntity
  8
0
  6
Continuous
 62
     7
100
AcDbVertex
100
AcDb2dVertex
 10
0.2
 20
0.0
 30
0.0
 42
1.0
  0
SEQEND
  5
C5
330
C2
100
AcDbEntity
  8
0
  6
Continuous
 62
     7
  0
ENDBLK
  5
C6
330
C0
100
AcDbEntity
  8
0
100
AcDbBlockEnd
  0
BLOCK
  5
C8
330
C7
100
AcDbEntity
  8
0
100
AcDbBlockBegin
  2
KOZU0020
 70
     0
 10
0.0
 20
0.0
 30
0.0
  3
KOZU0020
  1

  0
POLYLINE
  5
C9
330
C7
100
AcDbEntity
  8
0
  6
Continuous
 62
     7
100
AcDb2dPolyline
 66
     1
 10
0.0
 20
0.0
 30
0.0
 70
     1
 40
0.4000000100000001
 41
0.4000000100000001
  0
VERTEX
  5
CA
330
C9
100
AcDbEntity
  8
0
  6
Continuous
 62
     7
100
AcDbVertex
100
AcDb2dVertex
 10
-0.2
 20
0.0
 30
0.0
 42
1.0
  0
VERTEX
  5
CB
330
C9
100
AcDbEntity
  8
0
  6
Continuous
 62
     7
100
AcDbVertex
100
AcDb2dVertex
 10
0.2
 20
0.0
 30
0.0
 42
1.0
  0
SEQEND
  5
CC
330
C9
100
AcDbEntity
  8
0
  6
Continuous
 62
     7
  0
ENDBLK
  5
CD
330
C7
100
AcDbEntity
  8
0
100
AcDbBlockEnd
  0
BLOCK
  5
CF
330
CE
100
AcDbEntity
  8
0
100
AcDbBlockBegin
  2
KOZU0021
 70
     0
 10
0.0
 20
0.0
 30
0.0
  3
KOZU0021
  1

  0
POLYLINE
  5
D0
330
CE
100
AcDbEntity
  8
0
  6
Continuous
 62
     7
100
AcDb2dPolyline
 66
     1
 10
0.0
 20
0.0
 30
0.0
 70
     1
 40
0.4000000100000001
 41
0.4000000100000001
  0
VERTEX
  5
D1
330
D0
100
AcDbEntity
  8
0
  6
Continuous
 62
     7
100
AcDbVertex
100
AcDb2dVertex
 10
-0.2
 20
0.0
 30
0.0
 42
1.0
  0
VERTEX
  5
D2
330
D0
100
AcDbEntity
  8
0
  6
Continuous
 62
     7
100
AcDbVertex
100
AcDb2dVertex
 10
0.2
 20
0.0
 30
0.0
 42
1.0
  0
SEQEND
  5
D3
330
D0
100
AcDbEntity
  8
0
  6
Continuous
 62
     7
  0
ENDBLK
  5
D4
330
CE
100
AcDbEntity
  8
0
100
AcDbBlockEnd
  0
BLOCK
  5
D6
330
D5
100
AcDbEntity
  8
0
100
AcDbBlockBegin
  2
KOZU0022
 70
     0
 10
0.0
 20
0.0
 30
0.0
  3
KOZU0022
  1

  0
POLYLINE
  5
D7
330
D5
100
AcDbEntity
  8
0
  6
Continuous
 62
     7
100
AcDb2dPolyline
 66
     1
 10
0.0
 20
0.0
 30
0.0
 70
     1
 40
0.4000000100000001
 41
0.4000000100000001
  0
VERTEX
  5
D8
330
D7
100
AcDbEntity
  8
0
  6
Continuous
 62
     7
100
AcDbVertex
100
AcDb2dVertex
 10
-0.2
 20
0.0
 30
0.0
 42
1.0
  0
VERTEX
  5
D9
330
D7
100
AcDbEntity
  8
0
  6
Continuous
 62
     7
100
AcDbVertex
100
AcDb2dVertex
 10
0.2
 20
0.0
 30
0.0
 42
1.0
  0
SEQEND
  5
DA
330
D7
100
AcDbEntity
  8
0
  6
Continuous
 62
     7
  0
ENDBLK
  5
DB
330
D5
100
AcDbEntity
  8
0
100
AcDbBlockEnd
  0
BLOCK
  5
DD
330
DC
100
AcDbEntity
  8
0
100
AcDbBlockBegin
  2
KOZU0023
 70
     0
 10
0.0
 20
0.0
 30
0.0
  3
KOZU0023
  1

  0
POLYLINE
  5
DE
330
DC
100
AcDbEntity
  8
0
  6
Continuous
 62
     7
100
AcDb2dPolyline
 66
     1
 10
0.0
 20
0.0
 30
0.0
 70
     1
 40
0.4000000100000001
 41
0.4000000100000001
  0
VERTEX
  5
DF
330
DE
100
AcDbEntity
  8
0
  6
Continuous
 62
     7
100
AcDbVertex
100
AcDb2dVertex
 10
-0.2
 20
0.0
 30
0.0
 42
1.0
  0
VERTEX
  5
E0
330
DE
100
AcDbEntity
  8
0
  6
Continuous
 62
     7
100
AcDbVertex
100
AcDb2dVertex
 10
0.2
 20
0.0
 30
0.0
 42
1.0
  0
SEQEND
  5
E1
330
DE
100
AcDbEntity
  8
0
  6
Continuous
 62
     7
  0
ENDBLK
  5
E2
330
DC
100
AcDbEntity
  8
0
100
AcDbBlockEnd
  0
BLOCK
  5
E4
330
E3
100
AcDbEntity
  8
0
100
AcDbBlockBegin
  2
KOZU0024
 70
     0
 10
0.0
 20
0.0
 30
0.0
  3
KOZU0024
  1

  0
POLYLINE
  5
E5
330
E3
100
AcDbEntity
  8
0
  6
Continuous
 62
     7
100
AcDb2dPolyline
 66
     1
 10
0.0
 20
0.0
 30
0.0
 70
     1
 40
0.4000000100000001
 41
0.4000000100000001
  0
VERTEX
  5
E6
330
E5
100
AcDbEntity
  8
0
  6
Continuous
 62
     7
100
AcDbVertex
100
AcDb2dVertex
 10
-0.2
 20
0.0
 30
0.0
 42
1.0
  0
VERTEX
  5
E7
330
E5
100
AcDbEntity
  8
0
  6
Continuous
 62
     7
100
AcDbVertex
100
AcDb2dVertex
 10
0.2
 20
0.0
 30
0.0
 42
1.0
  0
SEQEND
  5
E8
330
E5
100
AcDbEntity
  8
0
  6
Continuous
 62
     7
  0
ENDBLK
  5
E9
330
E3
100
AcDbEntity
  8
0
100
AcDbBlockEnd
  0
BLOCK
  5
EB
330
EA
100
AcDbEntity
  8
0
100
AcDbBlockBegin
  2
KOZU0025
 70
     0
 10
0.0
 20
0.0
 30
0.0
  3
KOZU0025
  1

  0
POLYLINE
  5
EC
330
EA
100
AcDbEntity
  8
0
  6
Continuous
 62
     7
100
AcDb2dPolyline
 66
     1
 10
0.0
 20
0.0
 30
0.0
 70
     1
 40
0.4000000100000001
 41
0.4000000100000001
  0
VERTEX
  5
ED
330
EC
100
AcDbEntity
  8
0
  6
Continuous
 62
     7
100
AcDbVertex
100
AcDb2dVertex
 10
-0.2
 20
0.0
 30
0.0
 42
1.0
  0
VERTEX
  5
EE
330
EC
100
AcDbEntity
  8
0
  6
Continuous
 62
     7
100
AcDbVertex
100
AcDb2dVertex
 10
0.2
 20
0.0
 30
0.0
 42
1.0
  0
SEQEND
  5
EF
330
EC
100
AcDbEntity
  8
0
  6
Continuous
 62
     7
  0
ENDBLK
  5
F0
330
EA
100
AcDbEntity
  8
0
100
AcDbBlockEnd
  0
BLOCK
  5
305
330
303
100
AcDbEntity
  8
0
100
AcDbBlockBegin
  2
GENAXEH
 70
     0
 10
0.0
 20
0.0
 30
0.0
  3
GENAXEH
  1

  0
LINE
  5
304
330
303
100
AcDbEntity
  8
0
100
AcDbLine
 10
-1.0
 20
0.0
 30
0.0
 11
1.0
 21
0.0
 31
0.0
  0
ENDBLK
  5
306
330
303
100
AcDbEntity
  8
0
100
AcDbBlockEnd
  0
ENDSEC
  0
SECTION
  2
ENTITIES
  0
POINT
  5
F8
330
36
100
AcDbEntity
  8
0
  6
Continuous
 62
     3
100
AcDbPoint
 10
620.5155599999999
 20
356.14331
 30
0.0
  0
POINT
  5
F9
330
36
100
AcDbEntity
  8
0
  6
Continuous
 62
     3
100
AcDbPoint
 10
620.5155599999999
 20
359.34732
 30
0.0
  0
POINT
  5
FA
330
36
100
AcDbEntity
  8
0
  6
Continuous
 62
     3
100
AcDbPoint
 10
610.5155599999999
 20
359.34732
 30
0.0
  0
POINT
  5
FB
330
36
100
AcDbEntity
  8
0
  6
Continuous
 62
     3
100
AcDbPoint
 10
620.5155599999999
 20
362.5513
 30
0.0
  0
POINT
  5
FC
330
36
100
AcDbEntity
  8
0
  6
Continuous
 62
     3
100
AcDbPoint
 10
620.5155599999999
 20
359.34732
 30
0.0
  0
POINT
  5
FD
330
36
100
AcDbEntity
  8
0
  6
Continuous
 62
     3
100
AcDbPoint
 10
610.5155599999999
 20
359.34732
 30
0.0
  0
POINT
  5
FE
330
36
100
AcDbEntity
  8
0
  6
Continuous
 62
     3
100
AcDbPoint
 10
624.52057
 20
489.62167
 30
0.0
  0
POINT
  5
FF
330
36
100
AcDbEntity
  8
0
  6
Continuous
 62
     3
100
AcDbPoint
 10
624.52057
 20
469.5966799999999
 30
0.0
  0
POINT
  5
100
330
36
100
AcDbEntity
  8
0
  6
Continuous
 62
     3
100
AcDbPoint
 10
605.5155599999999
 20
469.5966799999999
 30
0.0
  0
POINT
  5
101
330
36
100
AcDbEntity
  8
0
  6
Continuous
 62
     3
100
AcDbPoint
 10
717.96057
 20
446.2841929999999
 30
0.0
  0
POINT
  5
102
330
36
100
AcDbEntity
  8
0
  6
Continuous
 62
     3
100
AcDbPoint
 10
714.0526099999999
 20
439.609183
 30
0.0
  0
POINT
  5
103
330
36
100
AcDbEntity
  8
0
  6
Continuous
 62
     3
100
AcDbPoint
 10
734.9730799999999
 20
439.609183
 30
0.0
  0
POINT
  5
104
330
36
100
AcDbEntity
  8
0
  6
Continuous
 62
     3
100
AcDbPoint
 10
714.0526099999999
 20
439.609183
 30
0.0
  0
POINT
  5
105
330
36
100
AcDbEntity
  8
0
  6
Continuous
 62
     3
100
AcDbPoint
 10
714.0526099999999
 20
519.609177
 30
0.0
  0
POINT
  5
106
330
36
100
AcDbEntity
  8
0
  6
Continuous
 62
     3
100
AcDbPoint
 10
749.97308
 20
519.609177
 30
0.0
  0
POINT
  5
107
330
36
100
AcDbEntity
  8
0
  6
Continuous
 62
     3
100
AcDbPoint
 10
717.96057
 20
512.9341870000001
 30
0.0
  0
POINT
  5
108
330
36
100
AcDbEntity
  8
0
  6
Continuous
 62
     3
100
AcDbPoint
 10
714.0526099999999
 20
519.609177
 30
0.0
  0
POINT
  5
109
330
36
100
AcDbEntity
  8
0
  6
Continuous
 62
     3
100
AcDbPoint
 10
734.9730799999999
 20
519.609177
 30
0.0
  0
POINT
  5
10A
330
36
100
AcDbEntity
  8
0
  6
Continuous
 62
     3
100
AcDbPoint
 10
717.96057
 20
512.9341870000001
 30
0.0
  0
POINT
  5
10B
330
36
100
AcDbEntity
  8
0
  6
Continuous
 62
     3
100
AcDbPoint
 10
717.96057
 20
446.2841929999999
 30
0.0
  0
POINT
  5
10C
330
36
100
AcDbEntity
  8
0
  6
Continuous
 62
     3
100
AcDbPoint
 10
734.9730799999999
 20
446.2841929999999
 30
0.0
  0
POINT
  5
10D
330
36
100
AcDbEntity
  8
0
  6
Continuous
 62
     3
100
AcDbPoint
 10
709.96057
 20
436.375353
 30
0.0
  0
POINT
  5
10E
330
36
100
AcDbEntity
  8
0
  6
Continuous
 62
     3
100
AcDbPoint
 10
620.5155599999999
 20
474.4018599999999
 30
0.0
  0
POINT
  5
10F
330
36
100
AcDbEntity
  8
0
  6
Continuous
 62
     3
100
AcDbPoint
 10
620.5155599999999
 20
409.609183
 30
0.0
  0
POINT
  5
110
330
36
100
AcDbEntity
  8
0
  6
Continuous
 62
     3
100
AcDbPoint
 10
699.9480599999999
 20
443.614183
 30
0.0
  0
POINT
  5
111
330
36
100
AcDbEntity
  8
0
  6
Continuous
 62
     3
100
AcDbPoint
 10
670.5780599999999
 20
443.614183
 30
0.0
  0
POINT
  5
112
330
36
100
AcDbEntity
  8
0
  6
Continuous
 62
     3
100
AcDbPoint
 10
670.5780599999999
 20
424.609183
 30
0.0
  0
POINT
  5
113
330
36
100
AcDbEntity
  8
0
  6
Continuous
 62
     3
100
AcDbPoint
 10
670.5780599999999
 20
443.614183
 30
0.0
  0
POINT
  5
114
330
36
100
AcDbEntity
  8
0
  6
Continuous
 62
     3
100
AcDbPoint
 10
650.55304
 20
443.614183
 30
0.0
  0
POINT
  5
115
330
36
100
AcDbEntity
  8
0
  6
Continuous
 62
     3
100
AcDbPoint
 10
650.55304
 20
424.609183
 30
0.0
  0
POINT
  5
116
330
36
100
AcDbEntity
  8
0
  6
Continuous
 62
     3
100
AcDbPoint
 10
699.9480599999999
 20
443.614183
 30
0.0
  0
POINT
  5
117
330
36
100
AcDbEntity
  8
0
  6
Continuous
 62
     3
100
AcDbPoint
 10
719.97308
 20
443.614183
 30
0.0
  0
POINT
  5
118
330
36
100
AcDbEntity
  8
0
  6
Continuous
 62
     3
100
AcDbPoint
 10
719.97308
 20
424.609183
 30
0.0
  0
POINT
  5
119
330
36
100
AcDbEntity
  8
0
  6
Continuous
 62
     3
100
AcDbPoint
 10
712.99164
 20
516.6638670000001
 30
0.0
  0
POINT
  5
11A
330
36
100
AcDbEntity
  8
0
  6
Continuous
 62
     3
100
AcDbPoint
 10
706.9294999999999
 20
509.204577
 30
0.0
  0
POINT
  5
11C
330
36
100
AcDbEntity
  8
0
  6
Continuous
 62
     3
100
AcDbPoint
 10
620.5155599999999
 20
362.5513
 30
0.0
  0
POINT
  5
11D
330
36
100
AcDbEntity
  8
0
  6
Continuous
 62
     3
100
AcDbPoint
 10
621.85052
 20
378.57132
 30
0.0
  0
LINE
  5
11F
330
36
100
AcDbEntity
  8
0
  6
Continuous
 62
     7
100
AcDbLine
 10
563.53424
 20
333.74081
 30
0.0
 11
793.53424
 21
333.74081
 31
0.0
  0
LINE
  5
120
330
36
100
AcDbEntity
  8
0
  6
Continuous
 62
     7
100
AcDbLine
 10
563.53424
 20
323.74081
 30
0.0
 11
793.53424
 21
323.74081
 31
0.0
  0
LINE
  5
121
330
36
100
AcDbEntity
  8
0
  6
Continuous
 62
     7
100
AcDbLine
 10
563.53424
 20
313.74081
 30
0.0
 11
793.53424
 21
313.74081
 31
0.0
  0
LINE
  5
122
330
36
100
AcDbEntity
  8
0
  6
Continuous
 62
     7
100
AcDbLine
 10
563.53424
 20
303.74081
 30
0.0
 11
793.53424
 21
303.74081
 31
0.0
  0
LINE
  5
123
330
36
100
AcDbEntity
  8
0
  6
CENTER
 62
     4
100
AcDbLine
 10
617.1390399999999
 20
479.60919
 30
0.0
 11
724.2323599999999
 21
479.60919
 31
0.0
  0
LINE
  5
124
330
36
100
AcDbEntity
  8
0
  6
Continuous
 62
     3
100
AcDbLine
 10
619.5155599999999
 20
356.14331
 30
0.0
 11
609.5155599999999
 21
356.14331
 31
0.0
  0
LINE
  5
125
330
36
100
AcDbEntity
  8
0
  6
Continuous
 62
     3
100
AcDbLine
 10
619.5155599999999
 20
359.34732
 30
0.0
 11
609.5155599999999
 21
359.34732
 31
0.0
  0
LINE
  5
126
330
36
100
AcDbEntity
  8
0
  6
Continuous
 62
     3
100
AcDbLine
 10
610.5155599999999
 20
360.14731
 30
0.0
 11
610.5155599999999
 21
360.94733
 31
0.0
  0
LINE
  5
127
330
36
100
AcDbEntity
  8
0
  6
Continuous
 62
     3
100
AcDbLine
 10
610.5155599999999
 20
355.34332
 30
0.0
 11
610.5155599999999
 21
350.45078
 31
0.0
  0
LINE
  5
128
330
36
100
AcDbEntity
  8
0
  6
Continuous
 62
     3
100
AcDbLine
 10
610.5155599999999
 20
359.34732
 30
0.0
 11
610.5155599999999
 21
356.14331
 31
0.0
  0
LINE
  5
129
330
36
100
AcDbEntity
  8
0
  6
Continuous
 62
     7
100
AcDbLine
 10
610.5155599999999
 20
359.74731
 30
0.0
 11
610.5155599999999
 21
360.14731
 31
0.0
  0
LINE
  5
12A
330
36
100
AcDbEntity
  8
0
  6
Continuous
 62
     7
100
AcDbLine
 10
610.5155599999999
 20
355.7433200000001
 30
0.0
 11
610.5155599999999
 21
355.34332
 31
0.0
  0
LINE
  5
12B
330
36
100
AcDbEntity
  8
0
  6
Continuous
 62
     3
100
AcDbLine
 10
619.5155599999999
 20
362.5513
 30
0.0
 11
609.5155599999999
 21
362.5513
 31
0.0
  0
LINE
  5
12C
330
36
100
AcDbEntity
  8
0
  6
Continuous
 62
     3
100
AcDbLine
 10
619.5155599999999
 20
359.34732
 30
0.0
 11
609.5155599999999
 21
359.34732
 31
0.0
  0
LINE
  5
12E
330
36
100
AcDbEntity
  8
0
  6
Continuous
 62
     3
100
AcDbLine
 10
610.5155599999999
 20
358.5473
 30
0.0
 11
610.5155599999999
 21
357.74731
 31
0.0
  0
LINE
  5
12F
330
36
100
AcDbEntity
  8
0
  6
Continuous
 62
     3
100
AcDbLine
 10
610.5155599999999
 20
362.5513
 30
0.0
 11
610.5155599999999
 21
359.34732
 31
0.0
  0
LINE
  5
130
330
36
100
AcDbEntity
  8
0
  6
Continuous
 62
     7
100
AcDbLine
 10
610.5155599999999
 20
362.95132
 30
0.0
 11
610.5155599999999
 21
363.35132
 31
0.0
  0
LINE
  5
131
330
36
100
AcDbEntity
  8
0
  6
Continuous
 62
     7
100
AcDbLine
 10
610.5155599999999
 20
358.94733
 30
0.0
 11
610.5155599999999
 21
358.5473
 31
0.0
  0
LINE
  5
132
330
36
100
AcDbEntity
  8
0
  6
Continuous
 62
     3
100
AcDbLine
 10
623.52057
 20
489.62167
 30
0.0
 11
604.5155599999999
 21
489.62167
 31
0.0
  0
LINE
  5
133
330
36
100
AcDbEntity
  8
0
  6
Continuous
 62
     3
100
AcDbLine
 10
623.52057
 20
469.5966799999999
 30
0.0
 11
604.5155599999999
 21
469.5966799999999
 31
0.0
  0
LINE
  5
134
330
36
100
AcDbEntity
  8
0
  6
Continuous
 62
     3
100
AcDbLine
 10
605.5155599999999
 20
488.82169
 30
0.0
 11
605.5155599999999
 21
470.3967
 31
0.0
  0
LINE
  5
135
330
36
100
AcDbEntity
  8
0
  6
Continuous
 62
     7
100
AcDbLine
 10
605.5155599999999
 20
489.2216799999999
 30
0.0
 11
605.5155599999999
 21
488.82169
 31
0.0
  0
LINE
  5
136
330
36
100
AcDbEntity
  8
0
  6
Continuous
 62
     7
100
AcDbLine
 10
605.5155599999999
 20
469.99667
 30
0.0
 11
605.5155599999999
 21
470.3967
 31
0.0
  0
LINE
  5
137
330
36
100
AcDbEntity
  8
0
  6
Continuous
 62
     3
100
AcDbLine
 10
718.9605700000001
 20
446.2841929999999
 30
0.0
 11
735.97308
 21
446.2841929999999
 31
0.0
  0
LINE
  5
138
330
36
100
AcDbEntity
  8
0
  6
Continuous
 62
     3
100
AcDbLine
 10
715.0526099999999
 20
439.609183
 30
0.0
 11
735.97308
 21
439.609183
 31
0.0
  0
LINE
  5
139
330
36
100
AcDbEntity
  8
0
  6
Continuous
 62
     3
100
AcDbLine
 10
734.9730799999999
 20
445.484183
 30
0.0
 11
734.9730799999999
 21
440.4091929999999
 31
0.0
  0
LINE
  5
13A
330
36
100
AcDbEntity
  8
0
  6
Continuous
 62
     7
100
AcDbLine
 10
734.9730799999999
 20
445.884203
 30
0.0
 11
734.9730799999999
 21
445.484183
 31
0.0
  0
LINE
  5
13B
330
36
100
AcDbEntity
  8
0
  6
Continuous
 62
     7
100
AcDbLine
 10
734.9730799999999
 20
440.009203
 30
0.0
 11
734.9730799999999
 21
440.4091929999999
 31
0.0
  0
LINE
  5
13C
330
36
100
AcDbEntity
  8
0
  6
Continuous
 62
     3
100
AcDbLine
 10
715.0526099999999
 20
439.609183
 30
0.0
 11
750.9730799999999
 21
439.609183
 31
0.0
  0
LINE
  5
13D
330
36
100
AcDbEntity
  8
0
  6
Continuous
 62
     3
100
AcDbLine
 10
715.0526099999999
 20
519.609177
 30
0.0
 11
750.9730799999999
 21
519.609177
 31
0.0
  0
LINE
  5
13E
330
36
100
AcDbEntity
  8
0
  6
Continuous
 62
     3
100
AcDbLine
 10
749.97308
 20
440.4091929999999
 30
0.0
 11
749.97308
 21
518.809187
 31
0.0
  0
LINE
  5
13F
330
36
100
AcDbEntity
  8
0
  6
Continuous
 62
     7
100
AcDbLine
 10
749.97308
 20
440.009203
 30
0.0
 11
749.97308
 21
440.4091929999999
 31
0.0
  0
LINE
  5
140
330
36
100
AcDbEntity
  8
0
  6
Continuous
 62
     7
100
AcDbLine
 10
749.97308
 20
519.2092070000001
 30
0.0
 11
749.97308
 21
518.809187
 31
0.0
  0
LINE
  5
141
330
36
100
AcDbEntity
  8
0
  6
Continuous
 62
     3
100
AcDbLine
 10
718.9605700000001
 20
512.9341870000001
 30
0.0
 11
735.97308
 21
512.9341870000001
 31
0.0
  0
LINE
  5
142
330
36
100
AcDbEntity
  8
0
  6
Continuous
 62
     3
100
AcDbLine
 10
715.0526099999999
 20
519.609177
 30
0.0
 11
735.97308
 21
519.609177
 31
0.0
  0
LINE
  5
143
330
36
100
AcDbEntity
  8
0
  6
Continuous
 62
     3
100
AcDbLine
 10
734.9730799999999
 20
513.734177
 30
0.0
 11
734.9730799999999
 21
518.809187
 31
0.0
  0
LINE
  5
144
330
36
100
AcDbEntity
  8
0
  6
Continuous
 62
     7
100
AcDbLine
 10
734.9730799999999
 20
513.3342070000001
 30
0.0
 11
734.9730799999999
 21
513.734177
 31
0.0
  0
LINE
  5
145
330
36
100
AcDbEntity
  8
0
  6
Continuous
 62
     7
100
AcDbLine
 10
734.9730799999999
 20
519.2092070000001
 30
0.0
 11
734.9730799999999
 21
518.809187
 31
0.0
  0
LINE
  5
146
330
36
100
AcDbEntity
  8
0
  6
Continuous
 62
     3
100
AcDbLine
 10
718.9605700000001
 20
512.9341870000001
 30
0.0
 11
735.97308
 21
512.9341870000001
 31
0.0
  0
LINE
  5
147
330
36
100
AcDbEntity
  8
0
  6
Continuous
 62
     3
100
AcDbLine
 10
718.9605700000001
 20
446.2841929999999
 30
0.0
 11
735.97308
 21
446.2841929999999
 31
0.0
  0
LINE
  5
148
330
36
100
AcDbEntity
  8
0
  6
Continuous
 62
     3
100
AcDbLine
 10
734.9730799999999
 20
512.1341970000001
 30
0.0
 11
734.9730799999999
 21
447.084183
 31
0.0
  0
LINE
  5
149
330
36
100
AcDbEntity
  8
0
  6
Continuous
 62
     7
100
AcDbLine
 10
734.9730799999999
 20
512.534197
 30
0.0
 11
734.9730799999999
 21
512.1341970000001
 31
0.0
  0
LINE
  5
14A
330
36
100
AcDbEntity
  8
0
  6
Continuous
 62
     7
100
AcDbLine
 10
734.9730799999999
 20
446.684193
 30
0.0
 11
734.9730799999999
 21
447.084183
 31
0.0
  0
LINE
  5
14B
330
36
100
AcDbEntity
  8
0
  6
CENTER
 62
     4
100
AcDbLine
 10
709.96057
 20
372.8566600000001
 30
0.0
 11
709.96057
 21
353.7168
 31
0.0
  0
LINE
  5
14C
330
36
100
AcDbEntity
  8
0
  6
CENTER
 62
     4
100
AcDbLine
 10
660.56555
 20
382.77246
 30
0.0
 11
660.56555
 21
351.21005
 31
0.0
  0
LINE
  5
14D
330
36
100
AcDbEntity
  8
0
  6
Continuous
 62
     7
100
AcDbLine
 10
670.5780599999999
 20
359.34732
 30
0.0
 11
670.5780599999999
 21
356.14331
 31
0.0
  0
LINE
  5
14E
330
36
100
AcDbEntity
  8
0
  6
Continuous
 62
     7
100
AcDbLine
 10
650.55304
 20
359.34732
 30
0.0
 11
650.55304
 21
356.14331
 31
0.0
  0
LINE
  5
14F
330
36
100
AcDbEntity
  8
0
  6
Continuous
 62
     7
100
AcDbLine
 10
699.9480599999999
 20
359.34732
 30
0.0
 11
699.9480599999999
 21
356.14331
 31
0.0
  0
LINE
  5
150
330
36
100
AcDbEntity
  8
0
  6
Continuous
 62
     7
100
AcDbLine
 10
719.97308
 20
362.5513
 30
0.0
 11
719.97308
 21
356.14331
 31
0.0
  0
LINE
  5
151
330
36
100
AcDbEntity
  8
0
  6
Continuous
 62
     7
100
AcDbLine
 10
563.53424
 20
333.74081
 30
0.0
 11
563.53424
 21
303.74081
 31
0.0
  0
LINE
  5
152
330
36
100
AcDbEntity
  8
0
  6
Continuous
 62
     7
100
AcDbLine
 10
650.55304
 20
356.14331
 30
0.0
 11
670.5780599999999
 21
356.14331
 31
0.0
  0
LINE
  5
153
330
36
100
AcDbEntity
  8
0
  6
Continuous
 62
     7
100
AcDbLine
 10
609.53424
 20
333.74081
 30
0.0
 11
609.53424
 21
303.74081
 31
0.0
  0
LINE
  5
154
330
36
100
AcDbEntity
  8
0
  6
Continuous
 62
     7
100
AcDbLine
 10
699.9480599999999
 20
356.14331
 30
0.0
 11
719.97308
 21
356.14331
 31
0.0
  0
LINE
  5
155
330
36
100
AcDbEntity
  8
0
  6
Continuous
 62
     7
100
AcDbLine
 10
625.53424
 20
333.74081
 30
0.0
 11
625.53424
 21
303.74081
 31
0.0
  0
LINE
  5
156
330
36
100
AcDbEntity
  8
0
  6
Continuous
 62
     7
100
AcDbLine
 10
641.53424
 20
333.74081
 30
0.0
 11
641.53424
 21
303.74081
 31
0.0
  0
LINE
  5
157
330
36
100
AcDbEntity
  8
0
  6
Continuous
 62
     7
100
AcDbLine
 10
657.5342400000001
 20
333.74081
 30
0.0
 11
657.5342400000001
 21
303.74081
 31
0.0
  0
LINE
  5
158
330
36
100
AcDbEntity
  8
0
  6
Continuous
 62
     7
100
AcDbLine
 10
624.52057
 20
489.62167
 30
0.0
 11
715.96808
 21
489.62167
 31
0.0
  0
LINE
  5
159
330
36
100
AcDbEntity
  8
0
  6
Continuous
 62
     7
100
AcDbLine
 10
670.5780599999999
 20
359.34732
 30
0.0
 11
719.97308
 21
359.34732
 31
0.0
  0
LINE
  5
15A
330
36
100
AcDbEntity
  8
0
  6
Continuous
 62
     7
100
AcDbLine
 10
665.56555
 20
362.5513
 30
0.0
 11
719.97308
 21
362.5513
 31
0.0
  0
LINE
  5
15B
330
36
100
AcDbEntity
  8
0
  6
Continuous
 62
     7
100
AcDbLine
 10
665.56555
 20
469.5966799999999
 30
0.0
 11
715.96808
 21
469.5966799999999
 31
0.0
  0
LINE
  5
15C
330
36
100
AcDbEntity
  8
0
  6
Continuous
 62
     3
100
AcDbLine
 10
709.96057
 20
435.375353
 30
0.0
 11
709.96057
 21
408.6091829999999
 31
0.0
  0
LINE
  5
15D
330
36
100
AcDbEntity
  8
0
  6
Continuous
 62
     3
100
AcDbLine
 10
620.5155599999999
 20
473.4018599999999
 30
0.0
 11
620.5155599999999
 21
408.6091829999999
 31
0.0
  0
LINE
  5
15E
330
36
100
AcDbEntity
  8
0
  6
Continuous
 62
     3
100
AcDbLine
 10
709.1605799999999
 20
409.609183
 30
0.0
 11
621.31555
 21
409.609183
 31
0.0
  0
LINE
  5
15F
330
36
100
AcDbEntity
  8
0
  6
Continuous
 62
     7
100
AcDbLine
 10
709.56055
 20
409.609183
 30
0.0
 11
709.1605799999999
 21
409.609183
 31
0.0
  0
LINE
  5
160
330
36
100
AcDbEntity
  8
0
  6
Continuous
 62
     7
100
AcDbLine
 10
620.9155299999999
 20
409.609183
 30
0.0
 11
621.31555
 21
409.609183
 31
0.0
  0
LINE
  5
161
330
36
100
AcDbEntity
  8
0
  6
Continuous
 62
     3
100
AcDbLine
 10
699.9480599999999
 20
442.614183
 30
0.0
 11
699.9480599999999
 21
423.609183
 31
0.0
  0
LINE
  5
162
330
36
100
AcDbEntity
  8
0
  6
Continuous
 62
     3
100
AcDbLine
 10
670.5780599999999
 20
442.614183
 30
0.0
 11
670.5780599999999
 21
423.609183
 31
0.0
  0
LINE
  5
163
330
36
100
AcDbEntity
  8
0
  6
Continuous
 62
     3
100
AcDbLine
 10
699.1480700000001
 20
424.609183
 30
0.0
 11
671.37805
 21
424.609183
 31
0.0
  0
LINE
  5
164
330
36
100
AcDbEntity
  8
0
  6
Continuous
 62
     7
100
AcDbLine
 10
699.5480299999999
 20
424.609183
 30
0.0
 11
699.1480700000001
 21
424.609183
 31
0.0
  0
LINE
  5
165
330
36
100
AcDbEntity
  8
0
  6
Continuous
 62
     7
100
AcDbLine
 10
670.97803
 20
424.609183
 30
0.0
 11
671.37805
 21
424.609183
 31
0.0
  0
LINE
  5
166
330
36
100
AcDbEntity
  8
0
  6
Continuous
 62
     7
100
AcDbLine
 10
650.55304
 20
515.604167
 30
0.0
 11
650.55304
 21
489.62167
 31
0.0
  0
LINE
  5
167
330
36
100
AcDbEntity
  8
0
  6
Continuous
 62
     7
100
AcDbLine
 10
670.5780599999999
 20
515.604167
 30
0.0
 11
670.5780599999999
 21
489.62167
 31
0.0
  0
LINE
  5
168
330
36
100
AcDbEntity
  8
0
  6
CENTER
 62
     4
100
AcDbLine
 10
660.56555
 20
523.0900670000001
 30
0.0
 11
660.56555
 21
436.375353
 31
0.0
  0
LINE
  5
169
330
36
100
AcDbEntity
  8
0
  6
Continuous
 62
     7
100
AcDbLine
 10
620.5155599999999
 20
359.34732
 30
0.0
 11
670.5780599999999
 21
359.34732
 31
0.0
  0
LINE
  5
16A
330
36
100
AcDbEntity
  8
0
  6
Continuous
 62
     7
100
AcDbLine
 10
620.5155599999999
 20
362.5513
 30
0.0
 11
655.56555
 21
362.5513
 31
0.0
  0
LINE
  5
16C
330
36
100
AcDbEntity
  8
0
  6
Continuous
 62
     7
100
AcDbLine
 10
624.52057
 20
469.5966799999999
 30
0.0
 11
655.56555
 21
469.5966799999999
 31
0.0
  0
LINE
  5
16D
330
36
100
AcDbEntity
  8
0
  6
Continuous
 62
     7
100
AcDbLine
 10
637.87054
 20
378.11667
 30
0.0
 11
637.41589
 21
378.57129
 31
0.0
  0
LINE
  5
16E
330
36
100
AcDbEntity
  8
0
  6
Continuous
 62
     7
100
AcDbLine
 10
637.87054
 20
374.5246
 30
0.0
 11
633.82379
 21
378.57132
 31
0.0
  0
LINE
  5
16F
330
36
100
AcDbEntity
  8
0
  6
Continuous
 62
     7
100
AcDbLine
 10
635.57172
 20
373.23132
 30
0.0
 11
630.23175
 21
378.57132
 31
0.0
  0
LINE
  5
170
330
36
100
AcDbEntity
  8
0
  6
Continuous
 62
     7
100
AcDbLine
 10
631.9796099999999
 20
373.23129
 30
0.0
 11
626.63959
 21
378.57129
 31
0.0
  0
LINE
  5
171
330
36
100
AcDbEntity
  8
0
  6
Continuous
 62
     7
100
AcDbLine
 10
628.3875099999999
 20
373.23132
 30
0.0
 11
623.0475499999999
 21
378.57132
 31
0.0
  0
LINE
  5
172
330
36
100
AcDbEntity
  8
0
  6
Continuous
 62
     7
100
AcDbLine
 10
624.7954099999999
 20
373.23132
 30
0.0
 11
621.85059
 21
376.17618
 31
0.0
  0
LINE
  5
173
330
36
100
AcDbEntity
  8
0
  6
Continuous
 62
     7
100
AcDbLine
 10
637.3932499999999
 20
373.23132
 30
0.0
 11
637.87054
 21
373.70862
 31
0.0
  0
LINE
  5
174
330
36
100
AcDbEntity
  8
0
  6
Continuous
 62
     7
100
AcDbLine
 10
633.80115
 20
373.23129
 30
0.0
 11
637.87054
 21
377.30069
 31
0.0
  0
LINE
  5
175
330
36
100
AcDbEntity
  8
0
  6
Continuous
 62
     7
100
AcDbLine
 10
630.20905
 20
373.23132
 30
0.0
 11
635.54907
 21
378.57129
 31
0.0
  0
LINE
  5
176
330
36
100
AcDbEntity
  8
0
  6
Continuous
 62
     7
100
AcDbLine
 10
626.6169399999999
 20
373.23132
 30
0.0
 11
631.95697
 21
378.57132
 31
0.0
  0
LINE
  5
177
330
36
100
AcDbEntity
  8
0
  6
Continuous
 62
     7
100
AcDbLine
 10
623.02484
 20
373.23129
 30
0.0
 11
628.36487
 21
378.57132
 31
0.0
  0
LINE
  5
178
330
36
100
AcDbEntity
  8
0
  6
Continuous
 62
     7
100
AcDbLine
 10
621.85052
 20
375.64911
 30
0.0
 11
624.7727099999999
 21
378.57132
 31
0.0
  0
LINE
  5
179
330
36
100
AcDbEntity
  8
0
  6
Continuous
 62
     7
100
AcDbLine
 10
621.85052
 20
373.23132
 30
0.0
 11
637.87054
 21
373.23132
 31
0.0
  0
LINE
  5
17A
330
36
100
AcDbEntity
  8
0
  6
Continuous
 62
     7
100
AcDbLine
 10
621.85052
 20
378.57132
 30
0.0
 11
637.87054
 21
378.57132
 31
0.0
  0
LINE
  5
17B
330
36
100
AcDbEntity
  8
0
  6
Continuous
 62
     7
100
AcDbLine
 10
621.85052
 20
378.57132
 30
0.0
 11
621.85052
 21
373.23132
 31
0.0
  0
LINE
  5
17C
330
36
100
AcDbEntity
  8
0
  6
Continuous
 62
     7
100
AcDbLine
 10
620.5155599999999
 20
362.5513
 30
0.0
 11
620.5155599999999
 21
359.34732
 31
0.0
  0
LINE
  5
17D
330
36
100
AcDbEntity
  8
0
  6
Continuous
 62
     7
100
AcDbLine
 10
625.8555299999999
 20
373.23132
 30
0.0
 11
625.8555299999999
 21
362.5513
 31
0.0
  0
LINE
  5
17E
330
36
100
AcDbEntity
  8
0
  6
CENTER
 62
     4
100
AcDbLine
 10
629.8605299999999
 20
381.38889
 30
0.0
 11
629.8605299999999
 21
356.7146
 31
0.0
  0
LINE
  5
17F
330
36
100
AcDbEntity
  8
0
  6
Continuous
 62
     7
100
AcDbLine
 10
633.86554
 20
373.23132
 30
0.0
 11
633.86554
 21
362.5513
 31
0.0
  0
LINE
  5
180
330
36
100
AcDbEntity
  8
0
  6
Continuous
 62
     7
100
AcDbLine
 10
637.87054
 20
378.57132
 30
0.0
 11
637.87054
 21
373.23132
 31
0.0
  0
LINE
  5
181
330
36
100
AcDbEntity
  8
0
  6
CENTER
 62
     4
100
AcDbLine
 10
629.8605299999999
 20
492.10919
 30
0.0
 11
629.8605299999999
 21
467.10919
 31
0.0
  0
LINE
  5
182
330
36
100
AcDbEntity
  8
0
  6
Continuous
 62
     3
100
AcDbLine
 10
670.5780599999999
 20
442.614183
 30
0.0
 11
670.5780599999999
 21
423.609183
 31
0.0
  0
LINE
  5
183
330
36
100
AcDbEntity
  8
0
  6
Continuous
 62
     3
100
AcDbLine
 10
650.55304
 20
442.614183
 30
0.0
 11
650.55304
 21
423.609183
 31
0.0
  0
LINE
  5
184
330
36
100
AcDbEntity
  8
0
  6
Continuous
 62
     3
100
AcDbLine
 10
669.7780799999999
 20
424.609183
 30
0.0
 11
651.35303
 21
424.609183
 31
0.0
  0
LINE
  5
185
330
36
100
AcDbEntity
  8
0
  6
Continuous
 62
     7
100
AcDbLine
 10
670.17804
 20
424.609183
 30
0.0
 11
669.7780799999999
 21
424.609183
 31
0.0
  0
LINE
  5
186
330
36
100
AcDbEntity
  8
0
  6
Continuous
 62
     7
100
AcDbLine
 10
650.9530599999999
 20
424.609183
 30
0.0
 11
651.35303
 21
424.609183
 31
0.0
  0
LINE
  5
187
330
36
100
AcDbEntity
  8
0
  6
Continuous
 62
     7
100
AcDbLine
 10
665.9055799999999
 20
375.22641
 30
0.0
 11
664.3086499999999
 21
376.8233
 31
0.0
  0
LINE
  5
188
330
36
100
AcDbEntity
  8
0
  6
Continuous
 62
     7
100
AcDbLine
 10
665.9055799999999
 20
371.63431
 30
0.0
 11
660.7165499999999
 21
376.82333
 31
0.0
  0
LINE
  5
189
330
36
100
AcDbEntity
  8
0
  6
Continuous
 62
     7
100
AcDbLine
 10
662.46442
 20
371.48331
 30
0.0
 11
657.12445
 21
376.8233
 31
0.0
  0
LINE
  5
18A
330
36
100
AcDbEntity
  8
0
  6
Continuous
 62
     7
100
AcDbLine
 10
658.87231
 20
371.48331
 30
0.0
 11
655.22559
 21
375.1301
 31
0.0
  0
LINE
  5
18B
330
36
100
AcDbEntity
  8
0
  6
Continuous
 62
     7
100
AcDbLine
 10
655.2802699999999
 20
371.48334
 30
0.0
 11
655.22559
 21
371.53802
 31
0.0
  0
LINE
  5
18C
330
36
100
AcDbEntity
  8
0
  6
Continuous
 62
     7
100
AcDbLine
 10
664.38208
 20
371.48334
 30
0.0
 11
665.90552
 21
373.00677
 31
0.0
  0
LINE
  5
18D
330
36
100
AcDbEntity
  8
0
  6
Continuous
 62
     7
100
AcDbLine
 10
660.78998
 20
371.48331
 30
0.0
 11
665.9055799999999
 21
376.59891
 31
0.0
  0
LINE
  5
18E
330
36
100
AcDbEntity
  8
0
  6
Continuous
 62
     7
100
AcDbLine
 10
657.1978799999999
 20
371.48331
 30
0.0
 11
662.53784
 21
376.8233
 31
0.0
  0
LINE
  5
18F
330
36
100
AcDbEntity
  8
0
  6
Continuous
 62
     7
100
AcDbLine
 10
655.22559
 20
373.10312
 30
0.0
 11
658.9457999999999
 21
376.8233
 31
0.0
  0
LINE
  5
190
330
36
100
AcDbEntity
  8
0
  6
Continuous
 62
     7
100
AcDbLine
 10
655.2255200000001
 20
376.69519
 30
0.0
 11
655.3537
 21
376.82333
 31
0.0
  0
LINE
  5
191
330
36
100
AcDbEntity
  8
0
  6
DASHED
 62
     6
100
AcDbLine
 10
655.56555
 20
362.5513
 30
0.0
 11
665.56555
 21
362.5513
 31
0.0
  0
LINE
  5
192
330
36
100
AcDbEntity
  8
0
  6
Continuous
 62
     7
100
AcDbLine
 10
655.2255200000001
 20
371.48331
 30
0.0
 11
665.9055799999999
 21
371.48331
 31
0.0
  0
LINE
  5
193
330
36
100
AcDbEntity
  8
0
  6
Continuous
 62
     7
100
AcDbLine
 10
655.2255200000001
 20
376.8233
 30
0.0
 11
665.9055799999999
 21
376.8233
 31
0.0
  0
LINE
  5
194
330
36
100
AcDbEntity
  8
0
  6
Continuous
 62
     7
100
AcDbLine
 10
655.56555
 20
366.14331
 30
0.0
 11
665.56555
 21
366.14331
 31
0.0
  0
LINE
  5
195
330
36
100
AcDbEntity
  8
0
  6
Continuous
 62
     7
100
AcDbLine
 10
655.56555
 20
366.14331
 30
0.0
 11
655.56555
 21
359.34732
 31
0.0
  0
LINE
  5
196
330
36
100
AcDbEntity
  8
0
  6
Continuous
 62
     7
100
AcDbLine
 10
655.2255200000001
 20
376.8233
 30
0.0
 11
655.2255200000001
 21
371.48331
 31
0.0
  0
LINE
  5
197
330
36
100
AcDbEntity
  8
0
  6
Continuous
 62
     7
100
AcDbLine
 10
657.22803
 20
371.48331
 30
0.0
 11
657.22803
 21
366.14331
 31
0.0
  0
LINE
  5
198
330
36
100
AcDbEntity
  8
0
  6
Continuous
 62
     7
100
AcDbLine
 10
665.56555
 20
366.14331
 30
0.0
 11
665.56555
 21
359.34732
 31
0.0
  0
LINE
  5
199
330
36
100
AcDbEntity
  8
0
  6
Continuous
 62
     7
100
AcDbLine
 10
665.9055799999999
 20
376.8233
 30
0.0
 11
665.9055799999999
 21
371.48331
 31
0.0
  0
LINE
  5
19A
330
36
100
AcDbEntity
  8
0
  6
Continuous
 62
     7
100
AcDbLine
 10
663.9030799999999
 20
371.48331
 30
0.0
 11
663.9030799999999
 21
366.14331
 31
0.0
  0
LINE
  5
19B
330
36
100
AcDbEntity
  8
0
  6
Continuous
 62
     7
100
AcDbLine
 10
655.56555
 20
488.60919
 30
0.0
 11
665.56555
 21
488.60919
 31
0.0
  0
LINE
  5
19C
330
36
100
AcDbEntity
  8
0
  6
Continuous
 62
     7
100
AcDbLine
 10
655.56555
 20
492.60919
 30
0.0
 11
665.56555
 21
492.60919
 31
0.0
  0
LINE
  5
19E
330
36
100
AcDbEntity
  8
0
  6
DASHED
 62
     6
100
AcDbLine
 10
655.56555
 20
469.5966799999999
 30
0.0
 11
665.56555
 21
469.5966799999999
 31
0.0
  0
LINE
  5
19F
330
36
100
AcDbEntity
  8
0
  6
CENTER
 62
     4
100
AcDbLine
 10
652.56555
 20
446.2841929999999
 30
0.0
 11
668.56555
 21
446.2841929999999
 31
0.0
  0
LINE
  5
1A0
330
36
100
AcDbEntity
  8
0
  6
Continuous
 62
     7
100
AcDbLine
 10
655.56555
 20
477.73419
 30
0.0
 11
655.56555
 21
466.5967025497531
 31
0.0
  0
LINE
  5
1A1
330
36
100
AcDbEntity
  8
0
  6
Continuous
 62
     7
100
AcDbLine
 10
650.55304
 20
469.5966799999999
 30
0.0
 11
650.55304
 21
443.614183
 31
0.0
  0
LINE
  5
1A2
330
36
100
AcDbEntity
  8
0
  6
Continuous
 62
     7
100
AcDbLine
 10
646.5155599999999
 20
475.60919
 30
0.0
 11
655.56555
 21
475.60919
 31
0.0
  0
LINE
  5
1A3
330
36
100
AcDbEntity
  8
0
  6
Continuous
 62
     7
100
AcDbLine
 10
646.5155599999999
 20
483.60919
 30
0.0
 11
655.56555
 21
483.60919
 31
0.0
  0
LINE
  5
1A4
330
36
100
AcDbEntity
  8
0
  6
Continuous
 62
     7
100
AcDbLine
 10
646.5155599999999
 20
483.60919
 30
0.0
 11
646.5155599999999
 21
475.60919
 31
0.0
  0
LINE
  5
1A5
330
36
100
AcDbEntity
  8
0
  6
DASHED
 62
     6
100
AcDbLine
 10
650.55304
 20
489.62167
 30
0.0
 11
650.55304
 21
469.5966799999999
 31
0.0
  0
LINE
  5
1A6
330
36
100
AcDbEntity
  8
0
  6
Continuous
 62
     7
100
AcDbLine
 10
655.56555
 20
492.60919
 30
0.0
 11
655.56555
 21
489.6216699999999
 31
0.0
  0
LINE
  5
1A7
330
36
100
AcDbEntity
  8
0
  6
Continuous
 62
     7
100
AcDbLine
 10
665.56555
 20
477.73419
 30
0.0
 11
665.56555
 21
466.5967025497531
 31
0.0
  0
LINE
  5
1A8
330
36
100
AcDbEntity
  8
0
  6
Continuous
 62
     7
100
AcDbLine
 10
670.5780599999999
 20
469.5966799999999
 30
0.0
 11
670.5780599999999
 21
443.614183
 31
0.0
  0
LINE
  5
1A9
330
36
100
AcDbEntity
  8
0
  6
Continuous
 62
     7
100
AcDbLine
 10
665.56555
 20
475.60919
 30
0.0
 11
673.5155599999999
 21
475.60919
 31
0.0
  0
LINE
  5
1AA
330
36
100
AcDbEntity
  8
0
  6
Continuous
 62
     7
100
AcDbLine
 10
665.56555
 20
483.60919
 30
0.0
 11
673.5155599999999
 21
483.60919
 31
0.0
  0
LINE
  5
1AB
330
36
100
AcDbEntity
  8
0
  6
Continuous
 62
     7
100
AcDbLine
 10
665.56555
 20
492.60919
 30
0.0
 11
665.5655500000001
 21
489.62167
 31
0.0
  0
LINE
  5
1AC
330
36
100
AcDbEntity
  8
0
  6
Continuous
 62
     7
100
AcDbLine
 10
673.5155599999999
 20
483.60919
 30
0.0
 11
673.5155599999999
 21
475.60919
 31
0.0
  0
LINE
  5
1AD
330
36
100
AcDbEntity
  8
0
  6
DASHED
 62
     6
100
AcDbLine
 10
670.5780599999999
 20
489.62167
 30
0.0
 11
670.5780599999999
 21
469.5966799999999
 31
0.0
  0
LINE
  5
1AE
330
36
100
AcDbEntity
  8
0
  6
CENTER
 62
     4
100
AcDbLine
 10
652.56555
 20
512.9341870000001
 30
0.0
 11
668.56555
 21
512.9341870000001
 31
0.0
  0
LINE
  5
1AF
330
36
100
AcDbEntity
  8
0
  6
Continuous
 62
     7
100
AcDbLine
 10
699.9480599999999
 20
515.604167
 30
0.0
 11
699.9480599999999
 21
489.62167
 31
0.0
  0
LINE
  5
1B0
330
36
100
AcDbEntity
  8
0
  6
Continuous
 62
     7
100
AcDbLine
 10
719.97308
 20
515.604167
 30
0.0
 11
719.97308
 21
443.614183
 31
0.0
  0
LINE
  5
1B1
330
36
100
AcDbEntity
  8
0
  6
CENTER
 62
     4
100
AcDbLine
 10
709.96057
 20
523.0900670000001
 30
0.0
 11
709.96057
 21
436.375353
 31
0.0
  0
LINE
  5
1B2
330
36
100
AcDbEntity
  8
0
  6
Continuous
 62
     3
100
AcDbLine
 10
699.9480599999999
 20
442.614183
 30
0.0
 11
699.9480599999999
 21
423.609183
 31
0.0
  0
LINE
  5
1B3
330
36
100
AcDbEntity
  8
0
  6
Continuous
 62
     3
100
AcDbLine
 10
719.97308
 20
442.614183
 30
0.0
 11
719.97308
 21
423.609183
 31
0.0
  0
LINE
  5
1B4
330
36
100
AcDbEntity
  8
0
  6
Continuous
 62
     3
100
AcDbLine
 10
700.74805
 20
424.609183
 30
0.0
 11
719.1730299999999
 21
424.609183
 31
0.0
  0
LINE
  5
1B5
330
36
100
AcDbEntity
  8
0
  6
Continuous
 62
     7
100
AcDbLine
 10
700.34808
 20
424.609183
 30
0.0
 11
700.74805
 21
424.609183
 31
0.0
  0
LINE
  5
1B6
330
36
100
AcDbEntity
  8
0
  6
Continuous
 62
     7
100
AcDbLine
 10
719.5730599999999
 20
424.609183
 30
0.0
 11
719.1730299999999
 21
424.609183
 31
0.0
  0
LINE
  5
1B7
330
36
100
AcDbEntity
  8
0
  6
Continuous
 62
     7
100
AcDbLine
 10
699.9480599999999
 20
469.5966799999999
 30
0.0
 11
699.9480599999999
 21
443.614183
 31
0.0
  0
LINE
  5
1B8
330
36
100
AcDbEntity
  8
0
  6
DASHED
 62
     6
100
AcDbLine
 10
699.9480599999999
 20
489.62167
 30
0.0
 11
699.9480599999999
 21
469.5966799999999
 31
0.0
  0
LINE
  5
1B9
330
36
100
AcDbEntity
  8
0
  6
Continuous
 62
     7
100
AcDbLine
 10
714.46057
 20
366.22131
 30
0.0
 11
715.4605700000001
 21
365.22131
 31
0.0
  0
LINE
  5
1BA
330
36
100
AcDbEntity
  8
0
  6
Continuous
 62
     7
100
AcDbLine
 10
704.46057
 20
365.22131
 30
0.0
 11
715.4605700000001
 21
365.22131
 31
0.0
  0
LINE
  5
1BB
330
36
100
AcDbEntity
  8
0
  6
Continuous
 62
     7
100
AcDbLine
 10
705.46057
 20
366.22131
 30
0.0
 11
714.46057
 21
366.22131
 31
0.0
  0
LINE
  5
1BC
330
36
100
AcDbEntity
  8
0
  6
Continuous
 62
     7
100
AcDbLine
 10
704.46051
 20
365.22128
 30
0.0
 11
705.46057
 21
366.22131
 31
0.0
  0
LINE
  5
1BD
330
36
100
AcDbEntity
  8
0
  6
Continuous
 62
     7
100
AcDbLine
 10
704.46057
 20
365.22131
 30
0.0
 11
704.46057
 21
362.5513
 31
0.0
  0
LINE
  5
1BE
330
36
100
AcDbEntity
  8
0
  6
Continuous
 62
     7
100
AcDbLine
 10
715.4605700000001
 20
365.22131
 30
0.0
 11
715.4605700000001
 21
362.5513
 31
0.0
  0
LINE
  5
1BF
330
36
100
AcDbEntity
  8
0
  6
CENTER
 62
     4
100
AcDbLine
 10
701.96057
 20
446.2841929999999
 30
0.0
 11
717.96057
 21
446.2841929999999
 31
0.0
  0
LINE
  5
1C0
330
36
100
AcDbEntity
  8
0
  6
CENTER
 62
     4
100
AcDbLine
 10
701.96057
 20
512.9341870000001
 30
0.0
 11
717.96057
 21
512.9341870000001
 31
0.0
  0
LINE
  5
1C1
330
36
100
AcDbEntity
  8
0
  6
Continuous
 62
     7
100
AcDbLine
 10
673.53424
 20
333.74081
 30
0.0
 11
673.53424
 21
303.74081
 31
0.0
  0
LINE
  5
1C2
330
36
100
AcDbEntity
  8
0
  6
Continuous
 62
     7
100
AcDbLine
 10
689.53424
 20
333.74081
 30
0.0
 11
689.53424
 21
303.74081
 31
0.0
  0
LINE
  5
1C3
330
36
100
AcDbEntity
  8
0
  6
Continuous
 62
     7
100
AcDbLine
 10
705.53424
 20
333.74081
 30
0.0
 11
705.53424
 21
303.74081
 31
0.0
  0
LINE
  5
1C4
330
36
100
AcDbEntity
  8
0
  6
Continuous
 62
     7
100
AcDbLine
 10
721.53424
 20
333.74081
 30
0.0
 11
721.53424
 21
303.74081
 31
0.0
  0
LINE
  5
1C5
330
36
100
AcDbEntity
  8
0
  6
Continuous
 62
     7
100
AcDbLine
 10
737.53424
 20
333.74081
 30
0.0
 11
737.53424
 21
303.74081
 31
0.0
  0
LINE
  5
1C6
330
36
100
AcDbEntity
  8
0
  6
Continuous
 62
     7
100
AcDbLine
 10
777.53424
 20
333.74081
 30
0.0
 11
777.53424
 21
303.74081
 31
0.0
  0
LINE
  5
1C7
330
36
100
AcDbEntity
  8
0
  6
Continuous
 62
     7
100
AcDbLine
 10
793.53424
 20
333.74081
 30
0.0
 11
793.53424
 21
303.74081
 31
0.0
  0
LINE
  5
1C8
330
36
100
AcDbEntity
  8
0
  6
Continuous
 62
     3
100
AcDbLine
 10
707.43402
 20
509.825387
 30
0.0
 11
712.48712
 21
516.043017
 31
0.0
  0
LINE
  5
1C9
330
36
100
AcDbEntity
  8
0
  6
Continuous
 62
     3
100
AcDbLine
 10
712.99164
 20
516.6638670000001
 30
0.0
 11
727.92462
 21
535.0383169999999
 31
0.0
  0
LINE
  5
1CA
330
36
100
AcDbEntity
  8
0
  6
Continuous
 62
     3
100
AcDbLine
 10
727.9245599999999
 20
535.0383169999999
 30
0.0
 11
731.62054
 21
535.0383169999999
 31
0.0
  0
LINE
  5
1CB
330
36
100
AcDbEntity
  8
0
  6
Continuous
 62
     7
100
AcDbLine
 10
707.1817599999999
 20
509.514997
 30
0.0
 11
707.43402
 21
509.825387
 31
0.0
  0
LINE
  5
1CC
330
36
100
AcDbEntity
  8
0
  6
Continuous
 62
     7
100
AcDbLine
 10
712.73932
 20
516.3533769999999
 30
0.0
 11
712.48712
 21
516.043017
 31
0.0
  0
LINE
  5
1CD
330
36
100
AcDbEntity
  8
0
  6
Continuous
 62
     7
100
AcDbLine
 10
442.8699299999999
 20
269.90408
 30
0.0
 11
862.86993
 21
269.90408
 31
0.0
  0
LINE
  5
1CE
330
36
100
AcDbEntity
  8
0
  6
Continuous
 62
     7
100
AcDbLine
 10
442.8699299999999
 20
566.90405
 30
0.0
 11
442.8699299999999
 21
269.90408
 31
0.0
  0
LINE
  5
1CF
330
36
100
AcDbEntity
  8
0
  6
Continuous
 62
     7
100
AcDbLine
 10
843.36993
 20
281.90408
 30
0.0
 11
843.36993
 21
554.90405
 31
0.0
  0
LINE
  5
1D0
330
36
100
AcDbEntity
  8
0
  6
Continuous
 62
     7
100
AcDbLine
 10
462.3699299999999
 20
458.9040799999999
 30
0.0
 11
462.3699299999999
 21
282.65408
 31
0.0
  0
LINE
  5
1D1
330
36
100
AcDbEntity
  8
0
  6
Continuous
 62
     7
100
AcDbLine
 10
843.36993
 20
554.90405
 30
0.0
 11
572.3699299999999
 21
554.90405
 31
0.0
  0
LINE
  5
1D2
330
36
100
AcDbEntity
  8
0
  6
Continuous
 62
     7
100
AcDbLine
 10
462.3699299999999
 20
281.90408
 30
0.0
 11
843.36993
 21
281.90408
 31
0.0
  0
LINE
  5
1D3
330
36
100
AcDbEntity
  8
0
  6
Continuous
 62
     7
100
AcDbLine
 10
862.86993
 20
566.90405
 30
0.0
 11
862.86993
 21
269.90408
 31
0.0
  0
LINE
  5
1D4
330
36
100
AcDbEntity
  8
0
  6
Continuous
 62
     7
100
AcDbLine
 10
442.8699299999999
 20
566.90405
 30
0.0
 11
862.86993
 21
566.90405
 31
0.0
  0
LINE
  5
1D5
330
36
100
AcDbEntity
  8
0
  6
Continuous
 62
     7
100
AcDbLine
 10
462.3699299999999
 20
554.90405
 30
0.0
 11
572.3699299999999
 21
554.90405
 31
0.0
  0
LINE
  5
1D6
330
36
100
AcDbEntity
  8
0
  6
Continuous
 62
     7
100
AcDbLine
 10
462.3699299999999
 20
554.90405
 30
0.0
 11
462.3699299999999
 21
458.9040799999999
 31
0.0
  0
LINE
  5
1D7
330
36
100
AcDbEntity
  8
0
  6
Continuous
 62
     7
100
AcDbLine
 10
482.3699299999999
 20
554.90405
 30
0.0
 11
482.3699299999999
 21
458.9040799999999
 31
0.0
  0
LINE
  5
1D8
330
36
100
AcDbEntity
  8
0
  6
Continuous
 62
     7
100
AcDbLine
 10
462.3699299999999
 20
546.90405
 30
0.0
 11
572.3699299999999
 21
546.90405
 31
0.0
  0
LINE
  5
1D9
330
36
100
AcDbEntity
  8
0
  6
Continuous
 62
     7
100
AcDbLine
 10
462.3699299999999
 20
538.90405
 30
0.0
 11
572.3699299999999
 21
538.90405
 31
0.0
  0
LINE
  5
1DA
330
36
100
AcDbEntity
  8
0
  6
Continuous
 62
     7
100
AcDbLine
 10
462.3699299999999
 20
530.90405
 30
0.0
 11
572.3699299999999
 21
530.90405
 31
0.0
  0
LINE
  5
1DB
330
36
100
AcDbEntity
  8
0
  6
Continuous
 62
     7
100
AcDbLine
 10
462.3699299999999
 20
522.9040499999999
 30
0.0
 11
572.3699299999999
 21
522.9040499999999
 31
0.0
  0
LINE
  5
1DC
330
36
100
AcDbEntity
  8
0
  6
Continuous
 62
     7
100
AcDbLine
 10
482.3699299999999
 20
498.9040799999999
 30
0.0
 11
572.3699299999999
 21
498.9040799999999
 31
0.0
  0
LINE
  5
1DD
330
36
100
AcDbEntity
  8
0
  6
Continuous
 62
     7
100
AcDbLine
 10
482.3699299999999
 20
490.9040799999999
 30
0.0
 11
572.3699299999999
 21
490.9040799999999
 31
0.0
  0
LINE
  5
1DE
330
36
100
AcDbEntity
  8
0
  6
Continuous
 62
     7
100
AcDbLine
 10
462.3699299999999
 20
482.9040799999999
 30
0.0
 11
572.3699299999999
 21
482.9040799999999
 31
0.0
  0
LINE
  5
1DF
330
36
100
AcDbEntity
  8
0
  6
Continuous
 62
     7
100
AcDbLine
 10
482.3699299999999
 20
474.9040799999999
 30
0.0
 11
572.3699299999999
 21
474.9040799999999
 31
0.0
  0
LINE
  5
1E0
330
36
100
AcDbEntity
  8
0
  6
Continuous
 62
     7
100
AcDbLine
 10
482.3699299999999
 20
466.9040799999999
 30
0.0
 11
572.3699299999999
 21
466.9040799999999
 31
0.0
  0
LINE
  5
1E1
330
36
100
AcDbEntity
  8
0
  6
Continuous
 62
     7
100
AcDbLine
 10
462.3699299999999
 20
458.9040799999999
 30
0.0
 11
572.3699299999999
 21
458.9040799999999
 31
0.0
  0
LINE
  5
1E2
330
36
100
AcDbEntity
  8
0
  6
Continuous
 62
     7
100
AcDbLine
 10
462.3699299999999
 20
554.90405
 30
0.0
 11
462.3699299999999
 21
458.9040799999999
 31
0.0
  0
LINE
  5
1E3
330
36
100
AcDbEntity
  8
0
  6
Continuous
 62
     7
100
AcDbLine
 10
462.3699299999999
 20
554.90405
 30
0.0
 11
572.3699299999999
 21
554.90405
 31
0.0
  0
LINE
  5
1E4
330
36
100
AcDbEntity
  8
0
  6
Continuous
 62
     7
100
AcDbLine
 10
572.3699299999999
 20
554.90405
 30
0.0
 11
572.3699299999999
 21
458.9040799999999
 31
0.0
  0
LINE
  5
1E5
330
36
100
AcDbEntity
  8
0
  6
Continuous
 62
     7
100
AcDbLine
 10
462.3699299999999
 20
514.9040499999999
 30
0.0
 11
572.3699299999999
 21
514.9040499999999
 31
0.0
  0
LINE
  5
1E6
330
36
100
AcDbEntity
  8
0
  6
Continuous
 62
     7
100
AcDbLine
 10
462.3699299999999
 20
506.9040799999999
 30
0.0
 11
572.3699299999999
 21
506.9040799999999
 31
0.0
  0
LINE
  5
1E7
330
36
100
AcDbEntity
  8
0
  6
Continuous
 62
     7
100
AcDbLine
 10
482.3699299999999
 20
498.9040799999999
 30
0.0
 11
572.3699299999999
 21
498.9040799999999
 31
0.0
  0
LINE
  5
1E8
330
36
100
AcDbEntity
  8
0
  6
Continuous
 62
     3
100
AcDbLine
 10
619.5155599999999
 20
362.5513
 30
0.0
 11
609.5155599999999
 21
362.5513
 31
0.0
  0
LINE
  5
1ED
330
36
100
AcDbEntity
  8
0
  6
Continuous
 62
     7
100
AcDbLine
 10
793.53424
 20
333.74081
 30
0.0
 11
793.53424
 21
303.74081
 31
0.0
  0
CIRCLE
  5
1EE
330
36
100
AcDbEntity
  8
0
  6
Continuous
 62
     7
100
AcDbCircle
 10
629.8605299999999
 20
479.60919
 30
0.0
 40
7.5
  0
ARC
  5
1EF
330
36
100
AcDbEntity
  8
0
  6
Continuous
 62
     7
100
AcDbCircle
 10
635.03363
 20
479.60919
 30
0.0
 40
14.518109
100
AcDbArc
 50
136.39723
 51
223.6027700000001
  0
CIRCLE
  5
1F0
330
36
100
AcDbEntity
  8
0
  6
Continuous
 62
     7
100
AcDbCircle
 10
660.56555
 20
479.60919
 30
0.0
 40
5.3400002
  0
ARC
  5
1F1
330
36
100
AcDbEntity
  8
0
  6
Continuous
 62
     7
100
AcDbCircle
 10
660.56555
 20
454.127303
 30
0.0
 40
14.518113
100
AcDbArc
 50
226.39706
 51
313.60286
  0
CIRCLE
  5
1F2
330
36
100
AcDbEntity
  8
0
  6
Continuous
 62
     7
100
AcDbCircle
 10
660.56555
 20
446.2841929999999
 30
0.0
 40
2.1360002
  0
CIRCLE
  5
1F3
330
36
100
AcDbEntity
  8
0
  6
Continuous
 62
     7
100
AcDbCircle
 10
660.56555
 20
446.2841929999999
 30
0.0
 40
4.806000199999999
  0
ARC
  5
1F4
330
36
100
AcDbEntity
  8
0
  6
Continuous
 62
     7
100
AcDbCircle
 10
660.56555
 20
505.0910769999999
 30
0.0
 40
14.518113
100
AcDbArc
 50
46.397056
 51
133.60294
  0
CIRCLE
  5
1F5
330
36
100
AcDbEntity
  8
0
  6
Continuous
 62
     7
100
AcDbCircle
 10
660.56555
 20
512.9341870000001
 30
0.0
 40
2.1360002
  0
CIRCLE
  5
1F6
330
36
100
AcDbEntity
  8
0
  6
Continuous
 62
     7
100
AcDbCircle
 10
660.56555
 20
512.9341870000001
 30
0.0
 40
4.806000199999999
  0
ARC
  5
1F7
330
36
100
AcDbEntity
  8
0
  6
Continuous
 62
     7
100
AcDbCircle
 10
709.96057
 20
454.127303
 30
0.0
 40
14.518113
100
AcDbArc
 50
226.39706
 51
313.60286
  0
CIRCLE
  5
1F8
330
36
100
AcDbEntity
  8
0
  6
Continuous
 62
     7
100
AcDbCircle
 10
709.96057
 20
479.60919
 30
0.0
 40
5.5
  0
CIRCLE
  5
1F9
330
36
100
AcDbEntity
  8
0
  6
Continuous
 62
     7
100
AcDbCircle
 10
709.96057
 20
446.2841929999999
 30
0.0
 40
2.1360002
  0
CIRCLE
  5
1FA
330
36
100
AcDbEntity
  8
0
  6
Continuous
 62
     7
100
AcDbCircle
 10
709.96057
 20
446.2841929999999
 30
0.0
 40
4.806000199999999
  0
CIRCLE
  5
1FB
330
36
100
AcDbEntity
  8
0
  6
Continuous
 62
     7
100
AcDbCircle
 10
709.96057
 20
479.60919
 30
0.0
 40
4.5
  0
ARC
  5
1FC
330
36
100
AcDbEntity
  8
0
  6
Continuous
 62
     7
100
AcDbCircle
 10
705.4549599999999
 20
479.60919
 30
0.0
 40
14.518109
100
AcDbArc
 50
316.39714
 51
43.60277299999999
  0
ARC
  5
1FD
330
36
100
AcDbEntity
  8
0
  6
Continuous
 62
     7
100
AcDbCircle
 10
709.96057
 20
505.0910769999999
 30
0.0
 40
14.518113
100
AcDbArc
 50
46.397056
 51
133.60294
  0
CIRCLE
  5
1FE
330
36
100
AcDbEntity
  8
0
  6
Continuous
 62
     7
100
AcDbCircle
 10
709.96057
 20
512.9341870000001
 30
0.0
 40
2.1360002
  0
CIRCLE
  5
1FF
330
36
100
AcDbEntity
  8
0
  6
Continuous
 62
     7
100
AcDbCircle
 10
709.96057
 20
512.9341870000001
 30
0.0
 40
4.806000199999999
  0
TEXT
  5
202
330
36
100
AcDbEntity
  8
0
  6
Continuous
 62
     3
100
AcDbText
 10
609.01553
 20
351.4303700000001
 30
0.0
 40
3.2
  1
J
 50
90.00000300000001
100
AcDbText
  0
TEXT
  5
203
330
36
100
AcDbEntity
  8
0
  6
Continuous
 62
     3
100
AcDbText
 10
609.01553
 20
359.88264
 30
0.0
 40
3.2
  1
J
 50
90.00000300000001
100
AcDbText
  0
TEXT
  5
204
330
36
100
AcDbEntity
  8
0
  6
Continuous
 62
     3
100
AcDbText
 10
604.01553
 20
478.5425299999999
 30
0.0
 40
3.2
  1
A
 50
90.00000300000001
100
AcDbText
  0
TEXT
  5
205
330
36
100
AcDbEntity
  8
0
  6
Continuous
 62
     2
100
AcDbText
 10
663.36283
 20
307.2713493955158
 30
0.0
 40
3.2
  1
７５
 41
0.61
100
AcDbText
  0
TEXT
  5
206
330
36
100
AcDbEntity
  8
0
  6
Continuous
 62
     2
100
AcDbText
 10
663.36283
 20
317.2713493955158
 30
0.0
 40
3.2
  1
４０
 41
0.61
100
AcDbText
  0
TEXT
  5
207
330
36
100
AcDbEntity
  8
0
  6
Continuous
 62
     2
100
AcDbText
 10
664.9628199999999
 20
327.2713493955158
 30
0.0
 40
3.2
  1
Ｄ
 41
0.6100000100000001
100
AcDbText
  0
TEXT
  5
208
330
36
100
AcDbEntity
  8
0
  6
Continuous
 62
     3
100
AcDbText
 10
733.4730499999999
 20
441.880033
 30
0.0
 40
3.2
  1
H
 50
90.00000300000001
100
AcDbText
  0
TEXT
  5
209
330
36
100
AcDbEntity
  8
0
  6
Continuous
 62
     3
100
AcDbText
 10
748.4730499999999
 20
478.5425299999999
 30
0.0
 40
3.2
  1
F
 50
90.00000300000001
100
AcDbText
  0
TEXT
  5
20A
330
36
100
AcDbEntity
  8
0
  6
Continuous
 62
     3
100
AcDbText
 10
733.4730499999999
 20
515.205047
 30
0.0
 40
3.2
  1
H
 50
90.00000300000001
100
AcDbText
  0
TEXT
  5
20B
330
36
100
AcDbEntity
  8
0
  6
Continuous
 62
     3
100
AcDbText
 10
733.46737
 20
478.5425299999999
 30
0.0
 40
3.2
  1
G
 50
90.00000300000001
100
AcDbText
  0
TEXT
  5
20C
330
36
100
AcDbEntity
  8
0
  6
Continuous
 62
     2
100
AcDbText
 10
575.8012245832295
 20
307.2713493955158
 30
0.0
 40
3.2
  1
ＤＬ－１４９Ｓ－２
 41
0.60999998
100
AcDbText
  0
TEXT
  5
20D
330
36
100
AcDbEntity
  8
0
  6
Continuous
 62
     2
100
AcDbText
 10
575.8012245832295
 20
317.2713493955158
 30
0.0
 40
3.2
  1
ＤＬ－１４９Ｓ－１
 41
0.60999998
100
AcDbText
  0
TEXT
  5
20E
330
36
100
AcDbEntity
  8
0
  6
Continuous
 62
     2
100
AcDbText
 10
584.3681772168606
 20
327.2713493955158
 30
0.0
 40
3.2
  1
品番
 41
0.61
100
AcDbText
  0
TEXT
  5
20F
330
36
100
AcDbEntity
  8
0
  6
Continuous
 62
     2
100
AcDbText
 10
627.5539141955188
 20
307.2713493955158
 30
0.0
 40
3.2
  1
１３７．５
 41
0.6099999900000001
100
AcDbText
  0
TEXT
  5
210
330
36
100
AcDbEntity
  8
0
  6
Continuous
 62
     2
100
AcDbText
 10
615.36283
 20
307.2713493955158
 30
0.0
 40
3.2
  1
２５
 41
0.61
100
AcDbText
  0
TEXT
  5
211
330
36
100
AcDbEntity
  8
0
  6
Continuous
 62
     2
100
AcDbText
 10
615.36283
 20
317.2713493955158
 30
0.0
 40
3.2
  1
２０
 41
0.61
100
AcDbText
  0
TEXT
  5
212
330
36
100
AcDbEntity
  8
0
  6
Continuous
 62
     2
100
AcDbText
 10
616.96282
 20
327.2713493955158
 30
0.0
 40
3.2
  1
Ａ
 41
0.6100000100000001
100
AcDbText
  0
TEXT
  5
213
330
36
100
AcDbEntity
  8
0
  6
Continuous
 62
     2
100
AcDbText
 10
631.36283
 20
317.2713493955158
 30
0.0
 40
3.2
  1
９０
 41
0.61
100
AcDbText
  0
TEXT
  5
214
330
36
100
AcDbEntity
  8
0
  6
Continuous
 62
     2
100
AcDbText
 10
632.96282
 20
327.2713493955158
 30
0.0
 40
3.2
  1
Ｂ
 41
0.6100000100000001
100
AcDbText
  0
TEXT
  5
215
330
36
100
AcDbEntity
  8
0
  6
Continuous
 62
     2
100
AcDbText
 10
647.36283
 20
307.2713493955158
 30
0.0
 40
3.2
  1
２５
 41
0.61
100
AcDbText
  0
TEXT
  5
216
330
36
100
AcDbEntity
  8
0
  6
Continuous
 62
     2
100
AcDbText
 10
647.36283
 20
317.2713493955158
 30
0.0
 40
3.2
  1
２０
 41
0.61
100
AcDbText
  0
TEXT
  5
217
330
36
100
AcDbEntity
  8
0
  6
Continuous
 62
     2
100
AcDbText
 10
648.9628199999999
 20
327.2713493955158
 30
0.0
 40
3.2
  1
Ｃ
 41
0.6100000100000001
100
AcDbText
  0
TEXT
  5
218
330
36
100
AcDbEntity
  8
0
  6
Continuous
 62
     3
100
AcDbText
 10
664.17137
 20
411.109183
 30
0.0
 40
3.2
  1
B
100
AcDbText
  0
TEXT
  5
219
330
36
100
AcDbEntity
  8
0
  6
Continuous
 62
     3
100
AcDbText
 10
684.19639
 20
426.131433
 30
0.0
 40
3.2
  1
D
100
AcDbText
  0
TEXT
  5
21A
330
36
100
AcDbEntity
  8
0
  6
Continuous
 62
     3
100
AcDbText
 10
659.49889
 20
426.109183
 30
0.0
 40
3.2
  1
C
100
AcDbText
  0
TEXT
  5
21B
330
36
100
AcDbEntity
  8
0
  6
Continuous
 62
     3
100
AcDbText
 10
704.55711
 20
426.109183
 30
0.0
 40
3.2
  1
E
100
AcDbText
  0
TEXT
  5
21C
330
36
100
AcDbEntity
  8
0
  6
Continuous
 62
     2
100
AcDbText
 10
679.36283
 20
307.2713493955158
 30
0.0
 40
3.2
  1
２５
 41
0.61
100
AcDbText
  0
TEXT
  5
21D
330
36
100
AcDbEntity
  8
0
  6
Continuous
 62
     2
100
AcDbText
 10
679.36283
 20
317.2713493955158
 30
0.0
 40
3.2
  1
２０
 41
0.61
100
AcDbText
  0
TEXT
  5
21E
330
36
100
AcDbEntity
  8
0
  6
Continuous
 62
     2
100
AcDbText
 10
680.9628199999999
 20
327.2713493955158
 30
0.0
 40
3.2
  1
Ｅ
 41
0.6100000100000001
100
AcDbText
  0
TEXT
  5
21F
330
36
100
AcDbEntity
  8
0
  6
Continuous
 62
     2
100
AcDbText
 10
695.36283
 20
307.2713493955158
 30
0.0
 40
3.2
  1
９０
 41
0.61
100
AcDbText
  0
TEXT
  5
220
330
36
100
AcDbEntity
  8
0
  6
Continuous
 62
     2
100
AcDbText
 10
695.36283
 20
317.2713493955158
 30
0.0
 40
3.2
  1
８０
 41
0.61
100
AcDbText
  0
TEXT
  5
221
330
36
100
AcDbEntity
  8
0
  6
Continuous
 62
     2
100
AcDbText
 10
696.9628199999999
 20
327.2713493955158
 30
0.0
 40
3.2
  1
Ｆ
 41
0.6100000100000001
100
AcDbText
  0
TEXT
  5
222
330
36
100
AcDbEntity
  8
0
  6
Continuous
 62
     2
100
AcDbText
 10
711.36283
 20
307.2713493955158
 30
0.0
 40
3.2
  1
７０
 41
0.61
100
AcDbText
  0
TEXT
  5
223
330
36
100
AcDbEntity
  8
0
  6
Continuous
 62
     2
100
AcDbText
 10
711.36283
 20
317.2713493955158
 30
0.0
 40
3.2
  1
６５
 41
0.61
100
AcDbText
  0
TEXT
  5
224
330
36
100
AcDbEntity
  8
0
  6
Continuous
 62
     2
100
AcDbText
 10
712.9628199999999
 20
327.2713493955158
 30
0.0
 40
3.2
  1
Ｇ
 41
0.6100000100000001
100
AcDbText
  0
TEXT
  5
225
330
36
100
AcDbEntity
  8
0
  6
Continuous
 62
     2
100
AcDbText
 10
744.0014321152084
 20
307.2713493955158
 30
0.0
 40
3.2
  1
%%C５．２×%%C１０．２サラ
 41
0.6100000100000001
100
AcDbText
  0
TEXT
  5
226
330
36
100
AcDbEntity
  8
0
  6
Continuous
 62
     2
100
AcDbText
 10
745.2865466509731
 20
317.2713493955158
 30
0.0
 40
3.2
  1
%%C５．２×%%C８．２サラ
 41
0.60999998
100
AcDbText
  0
TEXT
  5
227
330
36
100
AcDbEntity
  8
0
  6
Continuous
 62
     2
100
AcDbText
 10
727.36283
 20
307.2713493955158
 30
0.0
 40
3.2
  1
１０
 41
0.61
100
AcDbText
  0
TEXT
  5
228
330
36
100
AcDbEntity
  8
0
  6
Continuous
 62
     2
100
AcDbText
 10
725.76282
 20
317.2713493955158
 30
0.0
 40
3.2
  1
７．５
 41
0.60999997
100
AcDbText
  0
TEXT
  5
229
330
36
100
AcDbEntity
  8
0
  6
Continuous
 62
     2
100
AcDbText
 10
728.96282
 20
327.2713493955158
 30
0.0
 40
3.2
  1
Ｈ
 41
0.6100000100000001
100
AcDbText
  0
TEXT
  5
22A
330
36
100
AcDbEntity
  8
0
  6
Continuous
 62
     2
100
AcDbText
 10
756.9628199999999
 20
327.2713493955158
 30
0.0
 40
3.2
  1
Ｉ
 41
0.6100000100000001
100
AcDbText
  0
TEXT
  5
22B
330
36
100
AcDbEntity
  8
0
  6
Continuous
 62
     2
100
AcDbText
 10
784.9628199999999
 20
307.2713493955158
 30
0.0
 40
3.2
  1
４
 41
0.6100000100000001
100
AcDbText
  0
TEXT
  5
22C
330
36
100
AcDbEntity
  8
0
  6
Continuous
 62
     2
100
AcDbText
 10
784.9628199999999
 20
317.2713493955158
 30
0.0
 40
3.2
  1
３
 41
0.6100000100000001
100
AcDbText
  0
TEXT
  5
22D
330
36
100
AcDbEntity
  8
0
  6
Continuous
 62
     2
100
AcDbText
 10
784.9628199999999
 20
327.2713493955158
 30
0.0
 40
3.2
  1
Ｊ
 41
0.6100000100000001
100
AcDbText
  0
TEXT
  5
22E
330
36
100
AcDbEntity
  8
0
  6
Continuous
 62
     3
100
AcDbText
 10
729.25325
 20
536.5382870000001
 30
0.0
 40
3.2
  1
Ｉ
100
AcDbText
  0
TEXT
  5
233
330
36
100
AcDbEntity
  8
0
  6
Continuous
 62
     7
100
AcDbText
 10
468.5984499999999
 20
550.9040599999999
 30
0.0
 40
3.2
  1
品　名
 41
0.60999997
100
AcDbText
  0
TEXT
  5
234
330
36
100
AcDbEntity
  8
0
  6
Continuous
 62
     7
100
AcDbText
 10
468.5984499999999
 20
542.9040599999999
 30
0.0
 40
3.2
  1
品　番
 41
0.60999997
100
AcDbText
  0
TEXT
  5
235
330
36
100
AcDbEntity
  8
0
  6
Continuous
 62
     7
100
AcDbText
 10
468.5984499999999
 20
534.9040599999999
 30
0.0
 40
3.2
  1
材　質
 41
0.60999997
100
AcDbText
  0
TEXT
  5
236
330
36
100
AcDbEntity
  8
0
  6
Continuous
 62
     7
100
AcDbText
 10
468.5984499999999
 20
526.9040599999999
 30
0.0
 40
3.2
  1
仕上げ
 41
0.60999997
100
AcDbText
  0
TEXT
  5
237
330
36
100
AcDbEntity
  8
0
  6
Continuous
 62
     7
100
AcDbText
 10
465.3984599999999
 20
502.90406
 30
0.0
 40
3.2
  1
セットビス
 41
0.6099999900000001
100
AcDbText
  0
TEXT
  5
238
330
36
100
AcDbEntity
  8
0
  6
Continuous
 62
     7
100
AcDbText
 10
470.19844
 20
478.9040599999999
 30
0.0
 40
3.2
  1
備考
 41
0.61
100
AcDbText
  0
TEXT
  5
239
330
36
100
AcDbEntity
  8
0
  6
Continuous
 62
     7
100
AcDbText
 10
468.5984499999999
 20
518.9040599999999
 30
0.0
 40
3.2
  1
定　尺
 41
0.60999997
100
AcDbText
  0
TEXT
  5
23A
330
36
100
AcDbEntity
  8
0
  6
Continuous
 62
     7
100
AcDbText
 10
466.9984599999999
 20
510.9040599999999
 30
0.0
 40
3.2
  1
左右勝手
 41
0.60999998
100
AcDbText
  0
TEXT
  5
23B
330
36
100
AcDbEntity
  8
0
  6
Continuous
 62
     7
100
AcDbText
 10
485.7984599999999
 20
549.3040900000001
 30
0.0
 40
3.2
  1
打掛
 41
0.74999999
100
AcDbText
  0
TEXT
  5
23C
330
36
100
AcDbEntity
  8
0
  6
Continuous
 62
     7
100
AcDbText
 10
485.7984599999999
 20
541.3040900000001
 30
0.0
 40
3.2
  1
ＤＬ－１４９Ｓ
 41
0.75000003
100
AcDbText
  0
TEXT
  5
23D
330
36
100
AcDbEntity
  8
0
  6
Continuous
 62
     7
100
AcDbText
 10
485.7984499999999
 20
533.3040900000001
 30
0.0
 40
3.2
  1
ステンレス
 41
0.74999999
100
AcDbText
  0
TEXT
  5
23E
330
36
100
AcDbEntity
  8
0
  6
Continuous
 62
     7
100
AcDbText
 10
485.7984599999999
 20
525.3040900000001
 30
0.0
 40
3.2
  1
電解研磨
 41
0.7499999800000001
100
AcDbText
  0
TEXT
  5
23F
330
36
100
AcDbEntity
  8
0
  6
Continuous
 62
     7
100
AcDbText
 10
485.7984599999999
 20
509.30409
 30
0.0
 40
3.2
  1
無し
 41
0.74999999
100
AcDbText
  0
INSERT
  5
244
330
36
100
AcDbEntity
  8
0
  6
Continuous
 62
     7
100
AcDbBlockReference
  2
KOZU0001
 10
610.5155599999999
 20
359.34732
 30
0.0
  0
INSERT
  5
245
330
36
100
AcDbEntity
  8
0
  6
Continuous
 62
     7
100
AcDbBlockReference
  2
KOZU0002
 10
610.5155599999999
 20
356.14331
 30
0.0
  0
INSERT
  5
246
330
36
100
AcDbEntity
  8
0
  6
Continuous
 62
     7
100
AcDbBlockReference
  2
KOZU0003
 10
610.5155599999999
 20
362.5513
 30
0.0
  0
INSERT
  5
247
330
36
100
AcDbEntity
  8
0
  6
Continuous
 62
     7
100
AcDbBlockReference
  2
KOZU0004
 10
610.5155599999999
 20
359.34732
 30
0.0
  0
INSERT
  5
248
330
36
100
AcDbEntity
  8
0
  6
Continuous
 62
     7
100
AcDbBlockReference
  2
KOZU0005
 10
605.5155599999999
 20
489.62167
 30
0.0
  0
INSERT
  5
249
330
36
100
AcDbEntity
  8
0
  6
Continuous
 62
     7
100
AcDbBlockReference
  2
KOZU0006
 10
605.5155599999999
 20
469.5966799999999
 30
0.0
  0
INSERT
  5
24A
330
36
100
AcDbEntity
  8
0
  6
Continuous
 62
     7
100
AcDbBlockReference
  2
KOZU0007
 10
734.9730799999999
 20
446.2841929999999
 30
0.0
  0
INSERT
  5
24B
330
36
100
AcDbEntity
  8
0
  6
Continuous
 62
     7
100
AcDbBlockReference
  2
KOZU0008
 10
734.9730799999999
 20
439.609183
 30
0.0
  0
INSERT
  5
24C
330
36
100
AcDbEntity
  8
0
  6
Continuous
 62
     7
100
AcDbBlockReference
  2
KOZU0009
 10
749.97308
 20
439.609183
 30
0.0
  0
INSERT
  5
24D
330
36
100
AcDbEntity
  8
0
  6
Continuous
 62
     7
100
AcDbBlockReference
  2
KOZU0010
 10
749.97308
 20
519.609177
 30
0.0
  0
INSERT
  5
24E
330
36
100
AcDbEntity
  8
0
  6
Continuous
 62
     7
100
AcDbBlockReference
  2
KOZU0011
 10
734.9730799999999
 20
512.9341870000001
 30
0.0
  0
INSERT
  5
24F
330
36
100
AcDbEntity
  8
0
  6
Continuous
 62
     7
100
AcDbBlockReference
  2
KOZU0012
 10
734.9730799999999
 20
519.609177
 30
0.0
  0
INSERT
  5
250
330
36
100
AcDbEntity
  8
0
  6
Continuous
 62
     7
100
AcDbBlockReference
  2
KOZU0013
 10
734.9730799999999
 20
512.9341870000001
 30
0.0
  0
INSERT
  5
251
330
36
100
AcDbEntity
  8
0
  6
Continuous
 62
     7
100
AcDbBlockReference
  2
KOZU0014
 10
734.9730799999999
 20
446.2841929999999
 30
0.0
  0
INSERT
  5
252
330
36
100
AcDbEntity
  8
0
  6
Continuous
 62
     7
100
AcDbBlockReference
  2
KOZU0015
 10
709.96057
 20
409.609183
 30
0.0
  0
INSERT
  5
253
330
36
100
AcDbEntity
  8
0
  6
Continuous
 62
     7
100
AcDbBlockReference
  2
KOZU0016
 10
620.5155599999999
 20
409.609183
 30
0.0
  0
INSERT
  5
254
330
36
100
AcDbEntity
  8
0
  6
Continuous
 62
     7
100
AcDbBlockReference
  2
KOZU0017
 10
699.9480599999999
 20
424.609183
 30
0.0
  0
INSERT
  5
255
330
36
100
AcDbEntity
  8
0
  6
Continuous
 62
     7
100
AcDbBlockReference
  2
KOZU0018
 10
670.5780599999999
 20
424.609183
 30
0.0
  0
INSERT
  5
256
330
36
100
AcDbEntity
  8
0
  6
Continuous
 62
     7
100
AcDbBlockReference
  2
KOZU0019
 10
670.5780599999999
 20
424.609183
 30
0.0
  0
INSERT
  5
257
330
36
100
AcDbEntity
  8
0
  6
Continuous
 62
     7
100
AcDbBlockReference
  2
KOZU0020
 10
650.55304
 20
424.609183
 30
0.0
  0
INSERT
  5
258
330
36
100
AcDbEntity
  8
0
  6
Continuous
 62
     7
100
AcDbBlockReference
  2
KOZU0021
 10
699.9480599999999
 20
424.609183
 30
0.0
  0
INSERT
  5
259
330
36
100
AcDbEntity
  8
0
  6
Continuous
 62
     7
100
AcDbBlockReference
  2
KOZU0022
 10
719.97308
 20
424.609183
 30
0.0
  0
INSERT
  5
25A
330
36
100
AcDbEntity
  8
0
  6
Continuous
 62
     3
100
AcDbBlockReference
  2
KOZU0023
 10
706.9294999999999
 20
509.204577
 30
0.0
  0
INSERT
  5
25B
330
36
100
AcDbEntity
  8
0
  6
Continuous
 62
     3
100
AcDbBlockReference
  2
KOZU0024
 10
712.99164
 20
516.6638670000001
 30
0.0
  0
SOLID
  5
25C
330
36
100
AcDbEntity
  8
0
  6
Continuous
 62
     3
100
AcDbTrace
 10
711.50446
 20
514.914477
 30
0.0
 11
711.6672399999999
 21
514.6661169999999
 31
0.0
 12
711.67322
 22
514.6266269999999
 32
0.0
 13
711.67322
 23
514.6266269999999
 33
0.0
  0
SOLID
  5
25D
330
36
100
AcDbEntity
  8
0
  6
Continuous
 62
     3
100
AcDbTrace
 10
711.67322
 20
514.6266269999999
 30
0.0
 11
711.21545
 21
514.982217
 31
0.0
 12
711.50446
 22
514.914477
 32
0.0
 13
711.50446
 23
514.914477
 33
0.0
  0
SOLID
  5
25E
330
36
100
AcDbEntity
  8
0
  6
Continuous
 62
     3
100
AcDbTrace
 10
711.21545
 20
514.982217
 30
0.0
 11
711.67322
 21
514.6266269999999
 31
0.0
 12
711.6752299999999
 22
514.586657
 32
0.0
 13
711.6752299999999
 23
514.586657
 33
0.0
  0
SOLID
  5
25F
330
36
100
AcDbEntity
  8
0
  6
Continuous
 62
     3
100
AcDbTrace
 10
711.6752299999999
 20
514.586657
 30
0.0
 11
710.9592899999999
 21
514.832077
 31
0.0
 12
711.21545
 22
514.982217
 32
0.0
 13
711.21545
 23
514.982217
 33
0.0
  0
SOLID
  5
260
330
36
100
AcDbEntity
  8
0
  6
Continuous
 62
     3
100
AcDbTrace
 10
710.9592899999999
 20
514.832077
 30
0.0
 11
711.6752299999999
 21
514.586657
 31
0.0
 12
711.565
 22
514.3110169999999
 32
0.0
 13
711.565
 23
514.3110169999999
 33
0.0
  0
SOLID
  5
261
330
36
100
AcDbEntity
  8
0
  6
Continuous
 62
     3
100
AcDbTrace
 10
711.565
 20
514.3110169999999
 30
0.0
 11
710.8772
 21
514.546737
 31
0.0
 12
710.9592899999999
 22
514.832077
 32
0.0
 13
710.9592899999999
 23
514.832077
 33
0.0
  0
SOLID
  5
262
330
36
100
AcDbEntity
  8
0
  6
Continuous
 62
     3
100
AcDbTrace
 10
710.8772
 20
514.546737
 30
0.0
 11
711.565
 21
514.3110169999999
 31
0.0
 12
711.2951699999999
 22
514.187177
 32
0.0
 13
711.2951699999999
 23
514.187177
 33
0.0
  0
SOLID
  5
263
330
36
100
AcDbEntity
  8
0
  6
Continuous
 62
     3
100
AcDbTrace
 10
711.2951699999999
 20
514.187177
 30
0.0
 11
711.0143400000001
 21
514.2834269999999
 31
0.0
 12
710.8772
 22
514.546737
 32
0.0
 13
710.8772
 23
514.546737
 33
0.0
  0
SOLID
  5
264
330
36
100
AcDbEntity
  8
0
  6
Continuous
 62
     3
100
AcDbTrace
 10
708.89514
 20
511.611217
 30
0.0
 11
709.0579199999999
 21
511.362897
 31
0.0
 12
709.06384
 22
511.3233769999999
 32
0.0
 13
709.06384
 23
511.3233769999999
 33
0.0
  0
SOLID
  5
265
330
36
100
AcDbEntity
  8
0
  6
Continuous
 62
     3
100
AcDbTrace
 10
709.06384
 20
511.3233769999999
 30
0.0
 11
708.60608
 21
511.6789370000001
 31
0.0
 12
708.89514
 22
511.611217
 32
0.0
 13
708.89514
 23
511.611217
 33
0.0
  0
SOLID
  5
266
330
36
100
AcDbEntity
  8
0
  6
Continuous
 62
     3
100
AcDbTrace
 10
708.60608
 20
511.6789370000001
 30
0.0
 11
709.06384
 21
511.3233769999999
 31
0.0
 12
709.0658599999999
 22
511.283427
 32
0.0
 13
709.0658599999999
 23
511.283427
 33
0.0
  0
SOLID
  5
267
330
36
100
AcDbEntity
  8
0
  6
Continuous
 62
     3
100
AcDbTrace
 10
709.0658599999999
 20
511.283427
 30
0.0
 11
708.3499799999999
 21
511.528817
 31
0.0
 12
708.60608
 22
511.6789370000001
 32
0.0
 13
708.60608
 23
511.6789370000001
 33
0.0
  0
SOLID
  5
268
330
36
100
AcDbEntity
  8
0
  6
Continuous
 62
     3
100
AcDbTrace
 10
708.3499799999999
 20
511.528817
 30
0.0
 11
709.0658599999999
 21
511.283427
 31
0.0
 12
708.9556899999999
 22
511.007767
 32
0.0
 13
708.9556899999999
 23
511.007767
 33
0.0
  0
SOLID
  5
269
330
36
100
AcDbEntity
  8
0
  6
Continuous
 62
     3
100
AcDbTrace
 10
708.9556899999999
 20
511.007767
 30
0.0
 11
708.26788
 21
511.243517
 31
0.0
 12
708.3499799999999
 22
511.528817
 32
0.0
 13
708.3499799999999
 23
511.528817
 33
0.0
  0
SOLID
  5
26A
330
36
100
AcDbEntity
  8
0
  6
Continuous
 62
     3
100
AcDbTrace
 10
708.26788
 20
511.243517
 30
0.0
 11
708.9556899999999
 21
511.007767
 31
0.0
 12
708.6858499999999
 22
510.883957
 32
0.0
 13
708.6858499999999
 23
510.883957
 33
0.0
  0
SOLID
  5
26B
330
36
100
AcDbEntity
  8
0
  6
Continuous
 62
     3
100
AcDbTrace
 10
708.6858499999999
 20
510.883957
 30
0.0
 11
708.40503
 21
510.980207
 31
0.0
 12
708.26788
 22
511.243517
 32
0.0
 13
708.26788
 23
511.243517
 33
0.0
  0
INSERT
  5
26C
330
36
100
AcDbEntity
  8
0
  6
Continuous
 62
     7
100
AcDbBlockReference
  2
KOZU0025
 10
610.5155599999999
 20
362.5513
 30
0.0
  0
LINE
  5
3BB
330
36
100
AcDbEntity
  8
AM_0
100
AcDbLine
 10
655.56555
 20
466.5967025497531
 30
0.0
 11
665.5655478734094
 21
466.5966799999999
 31
0.0
  0
LINE
  5
3BC
330
36
100
AcDbEntity
  8
AM_0
  6
DASHED
 62
     6
100
AcDbLine
 10
665.5655478734094
 20
469.5966799999999
 30
0.0
 11
655.5655521265906
 21
469.5966799999999
 31
0.0
  0
LINE
  5
504
330
36
100
AcDbEntity
  8
0
  6
Continuous
 62
     7
100
AcDbLine
 10
655.56555
 20
488.60919
 30
0.0
 11
655.56555
 21
481.48416
 31
0.0
  0
LINE
  5
507
330
36
100
AcDbEntity
  8
0
  6
Continuous
 62
     7
100
AcDbLine
 10
665.56555
 20
488.60919
 30
0.0
 11
665.56555
 21
481.48416
 31
0.0
  0
ENDSEC
  0
SECTION
  2
OBJECTS
  0
DICTIONARY
  5
C
330
0
100
AcDbDictionary
281
     1
  3
ACAD_COLOR
350
2F
  3
ACAD_GROUP
350
D
  3
ACAD_LAYOUT
350
2E
  3
ACAD_MATERIAL
350
10
  3
ACAD_MLEADERSTYLE
350
338
  3
ACAD_MLINESTYLE
350
2B
  3
ACAD_PLOTSETTINGS
350
2D
  3
ACAD_PLOTSTYLENAME
350
E
  3
ACAD_SCALELIST
350
316
  3
ACAD_TABLESTYLE
350
30
  3
ACAD_VISUALSTYLE
350
14
  3
ACDB_RECOMPOSE_DATA
350
512
  3
AcDbVariableDictionary
350
313
  3
AcmDictionary
350
2C9
  3
AMG
350
270
  3
AMGSNAPSETTINGS
350
30A
  0
DICTIONARY
  5
3B9
330
2
100
AcDbDictionary
280
     1
281
     1
  3
AMLAYER_GROUPCOLORS
360
3BA
  0
DICTIONARY
  5
508
330
25
100
AcDbDictionary
280
     1
281
     1
  3
ADSK_XREC_LAYER_RECONCILED
360
509
  0
DICTIONARY
  5
50A
330
3B7
100
AcDbDictionary
280
     1
281
     1
  3
ADSK_XREC_LAYER_RECONCILED
360
50B
  0
DICTIONARY
  5
50C
330
3BD
100
AcDbDictionary
280
     1
281
     1
  3
ADSK_XREC_LAYER_RECONCILED
360
50D
  0
DICTIONARY
  5
50E
330
496
100
AcDbDictionary
280
     1
281
     1
  3
ADSK_XREC_LAYER_RECONCILED
360
50F
  0
DICTIONARY
  5
505
330
36
100
AcDbDictionary
280
     1
281
     1
  3
ACAD_SORTENTS
360
506
  0
DICTIONARY
  5
2F
102
{ACAD_REACTORS
330
C
102
}
330
C
100
AcDbDictionary
281
     1
  0
DICTIONARY
  5
D
102
{ACAD_REACTORS
330
C
102
}
330
C
100
AcDbDictionary
281
     1
  0
DICTIONARY
  5
2E
102
{ACAD_REACTORS
330
C
102
}
330
C
100
AcDbDictionary
281
     1
  3
Model
350
39
  3
レイアウト1
350
35
  0
DICTIONARY
  5
10
102
{ACAD_REACTORS
330
C
102
}
330
C
100
AcDbDictionary
281
     1
  3
ByBlock
350
12
  3
ByLayer
350
11
  3
Global
350
13
  0
DICTIONARY
  5
338
102
{ACAD_REACTORS
330
C
102
}
330
C
100
AcDbDictionary
281
     1
  3
Standard
350
339
  0
DICTIONARY
  5
2B
102
{ACAD_REACTORS
330
C
102
}
330
C
100
AcDbDictionary
281
     1
  3
Standard
350
2C
  0
DICTIONARY
  5
2D
102
{ACAD_REACTORS
330
C
102
}
330
C
100
AcDbDictionary
281
     1
  0
ACDBDICTIONARYWDFLT
  5
E
102
{ACAD_REACTORS
330
C
102
}
330
C
100
AcDbDictionary
281
     1
  3
Normal
350
F
100
AcDbDictionaryWithDefault
340
F
  0
DICTIONARY
  5
316
102
{ACAD_REACTORS
330
C
102
}
330
C
100
AcDbDictionary
281
     1
  3
A0
350
317
  3
A1
350
318
  3
A2
350
319
  3
A3
350
31A
  3
A4
350
31B
  3
A5
350
31C
  3
A6
350
31D
  3
A7
350
31E
  3
A8
350
31F
  3
A9
350
320
  3
B0
350
321
  3
B1
350
322
  3
B2
350
323
  3
B3
350
324
  3
B4
350
325
  3
B5
350
326
  3
B6
350
327
  3
B7
350
328
  3
B8
350
329
  3
B9
350
32A
  3
C0
350
32B
  3
C1
350
32C
  3
C2
350
32D
  3
C3
350
32E
  3
C4
350
32F
  3
C5
350
330
  3
C6
350
331
  3
C7
350
332
  3
C8
350
333
  3
C9
350
334
  3
D0
350
335
  3
D1
350
336
  3
D2
350
337
  0
DICTIONARY
  5
30
102
{ACAD_REACTORS
330
C
102
}
330
C
100
AcDbDictionary
281
     1
  3
Standard
350
31
  0
DICTIONARY
  5
14
102
{ACAD_REACTORS
330
C
102
}
330
C
100
AcDbDictionary
281
     1
  3
2dWireframe
350
1A
  3
3D Hidden
350
1C
  3
3dWireframe
350
1B
  3
Basic
350
19
  3
Brighten
350
20
  3
ColorChange
350
24
  3
Conceptual
350
1D
  3
Dim
350
1F
  3
Facepattern
350
23
  3
Flat
350
15
  3
FlatWithEdges
350
16
  3
Gouraud
350
17
  3
GouraudWithEdges
350
18
  3
Linepattern
350
22
  3
Realistic
350
1E
  3
Thicken
350
21
  0
XRECORD
  5
512
102
{ACAD_REACTORS
330
C
102
}
330
C
100
AcDbXrecord
280
     1
 90
        1
330
31
  0
DICTIONARY
  5
313
102
{ACAD_REACTORS
330
C
102
}
330
C
100
AcDbDictionary
281
     1
  3
CANNOSCALE
350
515
  3
CMLEADERSTYLE
350
513
  3
CTABLESTYLE
350
314
  3
LIGHTINGUNITS
350
516
  3
MSLTSCALE
350
514
  0
DICTIONARY
  5
2C9
102
{ACAD_REACTORS
330
C
102
}
330
C
100
AcDbDictionary
281
     1
  3
AcmStdDictionary
350
2D4
  3
AMDTSECTSYM_ARROWCOLOR
350
2F5
  0
DICTIONARY
  5
270
102
{ACAD_REACTORS
330
C
102
}
330
C
100
AcDbDictionary
281
     1
  0
DICTIONARY
  5
30A
102
{ACAD_REACTORS
330
C
102
}
330
C
100
AcDbDictionary
281
     1
  0
DICTIONARY
  5
3BA
102
{ACAD_REACTORS
330
3B9
102
}
330
3B9
100
AcDbDictionary
280
     1
281
     1
  0
XRECORD
  5
509
102
{ACAD_REACTORS
330
508
102
}
330
508
100
AcDbXrecord
280
     1
290
     1
  0
XRECORD
  5
50B
102
{ACAD_REACTORS
330
50A
102
}
330
50A
100
AcDbXrecord
280
     1
290
     1
  0
XRECORD
  5
50D
102
{ACAD_REACTORS
330
50C
102
}
330
50C
100
AcDbXrecord
280
     1
290
     1
  0
XRECORD
  5
50F
102
{ACAD_REACTORS
330
50E
102
}
330
50E
100
AcDbXrecord
280
     1
290
     1
  0
SORTENTSTABLE
  5
506
102
{ACAD_REACTORS
330
505
102
}
330
505
100
AcDbSortentsTable
330
36
331
3BC
  5
504
331
169
  5
169
331
1A8
  5
1A9
331
132
  5
132
331
1E7
  5
1ED
331
226
  5
228
331
13A
  5
13A
331
171
  5
171
331
FB
  5
FB
331
1B0
  5
1B2
331
1EF
  5
1F1
331
22E
  5
234
331
142
  5
142
331
179
  5
179
331
103
  5
103
331
1B8
  5
1BA
331
1C0
  5
1C2
331
1F7
  5
1F9
331
10B
  5
10B
331
14A
  5
14A
331
181
  5
181
331
236
  5
238
331
23E
  5
244
331
1FF
  5
203
331
259
  5
25B
331
261
  5
263
331
504
  5
1A7
331
269
  5
26B
331
189
  5
189
331
1C8
  5
1CA
331
113
  5
113
331
152
  5
152
331
207
  5
209
331
246
  5
248
331
191
  5
191
331
1D0
  5
1D2
331
15A
  5
15A
331
20F
  5
211
331
24E
  5
250
331
162
  5
162
331
199
  5
199
331
123
  5
123
331
1D8
  5
1DA
331
217
  5
219
331
12B
  5
12B
331
1A1
  5
1A1
331
256
  5
258
331
21F
  5
221
331
1A9
  5
1AA
331
1E0
  5
1E2
331
133
  5
133
331
16A
  5
16A
331
1B1
  5
1B3
331
1E8
  5
1EE
331
FC
  5
FC
331
13B
  5
13B
331
172
  5
172
331
227
  5
229
331
17A
  5
17A
331
1B9
  5
1BB
331
104
  5
104
331
143
  5
143
331
1F0
  5
1F2
331
1F8
  5
1FA
331
237
  5
239
331
14B
  5
14B
331
182
  5
182
331
10C
  5
10C
331
1C1
  5
1C3
331
23F
  5
245
331
25A
  5
25C
331
262
  5
264
331
26A
  5
26C
331
153
  5
153
331
18A
  5
18A
331
114
  5
114
331
1C9
  5
1CB
331
1D1
  5
1D3
331
208
  5
20A
331
11C
  5
11C
331
15B
  5
15B
331
192
  5
192
331
247
  5
249
331
24F
  5
251
331
19A
  5
19A
331
1D9
  5
1DB
331
124
  5
124
331
163
  5
163
331
210
  5
212
331
218
  5
21A
331
1A2
  5
1A2
331
257
  5
259
331
12C
  5
12C
331
220
  5
222
331
1AA
  5
1AB
331
134
  5
134
331
1E1
  5
1E3
331
228
  5
22A
331
13C
  5
13C
331
173
  5
173
331
FD
  5
FD
331
1B2
  5
1B4
331
1BA
  5
1BC
331
1F1
  5
1F3
331
144
  5
144
331
17B
  5
17B
331
105
  5
105
331
1C2
  5
1C4
331
1F9
  5
1FB
331
10D
  5
10D
331
14C
  5
14C
331
183
  5
183
331
238
  5
23A
331
25B
  5
25D
331
263
  5
265
331
26B
  5
3BB
331
18B
  5
18B
331
1CA
  5
1CC
331
115
  5
115
331
154
  5
154
331
209
  5
20B
331
248
  5
24A
331
15C
  5
15C
331
193
  5
193
331
11D
  5
11D
331
1D2
  5
1D4
331
211
  5
213
331
250
  5
252
331
164
  5
164
331
19B
  5
19B
331
125
  5
125
331
1DA
  5
1DC
331
219
  5
21B
331
1A3
  5
1A3
331
1AB
  5
1AC
331
1E2
  5
1E4
331
135
  5
135
331
16C
  5
16C
331
221
  5
223
331
229
  5
22B
331
1B3
  5
1B5
331
FE
  5
FE
331
13D
  5
13D
331
174
  5
174
331
17C
  5
17C
331
1BB
  5
1BD
331
106
  5
106
331
145
  5
145
331
1F2
  5
1F4
331
1FA
  5
1FC
331
239
  5
23B
331
14D
  5
14D
331
184
  5
184
331
10E
  5
10E
331
1C3
  5
1C5
331
25C
  5
25E
331
264
  5
266
331
26C
  5
3BC
331
507
  5
1AD
331
1CB
  5
1CD
331
202
  5
204
331
155
  5
155
331
18C
  5
18C
331
116
  5
116
331
1D3
  5
1D5
331
20A
  5
20C
331
15D
  5
15D
331
194
  5
194
331
249
  5
24B
331
251
  5
253
331
19C
  5
19C
331
1DB
  5
1DD
331
126
  5
126
331
165
  5
165
331
212
  5
214
331
21A
  5
21C
331
1A4
  5
1A4
331
12E
  5
12E
331
222
  5
224
331
16D
  5
16D
331
1AC
  5
1AE
331
136
  5
136
331
1E3
  5
1E5
331
22A
  5
22C
331
13E
  5
13E
331
175
  5
175
331
FF
  5
FF
331
1B4
  5
1B6
331
1BC
  5
1BE
331
1F3
  5
1F5
331
107
  5
107
331
146
  5
146
331
17D
  5
17D
331
23A
  5
23C
331
1C4
  5
1C6
331
1FB
  5
1FD
331
10F
  5
10F
331
14E
  5
14E
331
185
  5
185
331
25D
  5
25F
331
265
  5
267
331
18D
  5
18D
331
1CC
  5
1CE
331
117
  5
117
331
156
  5
156
331
203
  5
205
331
20B
  5
20D
331
24A
  5
24C
331
15E
  5
15E
331
195
  5
195
331
11F
  5
11F
331
1D4
  5
1D6
331
1DC
  5
1DE
331
166
  5
166
331
213
  5
215
331
252
  5
254
331
127
  5
127
331
21B
  5
21D
331
12F
  5
12F
331
1A5
  5
1A5
331
1AD
  5
1AF
331
1E4
  5
1E6
331
F8
  5
F8
331
137
  5
137
331
16E
  5
16E
331
223
  5
225
331
22B
  5
22D
331
176
  5
176
331
1B5
  5
1B7
331
100
  5
100
331
13F
  5
13F
331
233
  5
235
331
17E
  5
17E
331
1BD
  5
1BF
331
108
  5
108
331
147
  5
147
331
1F4
  5
1F6
331
1FC
  5
1FE
331
23B
  5
23D
331
14F
  5
14F
331
186
  5
186
331
1C5
  5
1C7
331
25E
  5
260
331
266
  5
268
331
110
  5
110
331
1CD
  5
1CF
331
204
  5
206
331
118
  5
118
331
157
  5
157
331
18E
  5
18E
331
24B
  5
24D
331
1D5
  5
1D7
331
20C
  5
20E
331
120
  5
120
331
15F
  5
15F
331
196
  5
196
331
253
  5
255
331
19E
  5
19E
331
1DD
  5
1DF
331
128
  5
128
331
167
  5
167
331
214
  5
216
331
21C
  5
21E
331
1A6
  5
1A6
331
130
  5
130
331
1E5
  5
1E7
331
224
  5
226
331
16F
  5
16F
331
1AE
  5
1B0
331
F9
  5
F9
331
138
  5
138
331
1ED
  5
1EF
331
22C
  5
22E
331
140
  5
140
331
177
  5
177
331
101
  5
101
331
1B6
  5
1B8
331
1BE
  5
1C0
331
1F5
  5
1F7
331
109
  5
109
331
148
  5
148
331
17F
  5
17F
331
234
  5
236
331
23C
  5
23E
331
187
  5
187
331
1C6
  5
1C8
331
1FD
  5
1FF
331
25F
  5
261
331
267
  5
269
331
111
  5
111
331
150
  5
150
331
244
  5
246
331
18F
  5
18F
331
1CE
  5
1D0
331
119
  5
119
331
158
  5
158
331
205
  5
207
331
20D
  5
20F
331
24C
  5
24E
331
160
  5
160
331
197
  5
197
331
121
  5
121
331
1D6
  5
1D8
331
1DE
  5
1E0
331
215
  5
217
331
129
  5
129
331
19F
  5
19F
331
254
  5
256
331
21D
  5
21F
331
1A7
  5
1A8
331
3BB
  5
4CB
331
131
  5
131
331
168
  5
168
331
1AF
  5
1B1
331
1E6
  5
1E8
331
FA
  5
FA
331
139
  5
139
331
170
  5
170
331
225
  5
227
331
22D
  5
233
331
178
  5
178
331
1B7
  5
1B9
331
102
  5
102
331
141
  5
141
331
1EE
  5
1F0
331
1F6
  5
1F8
331
235
  5
237
331
180
  5
180
331
1BF
  5
1C1
331
10A
  5
10A
331
149
  5
149
331
1FE
  5
202
331
23D
  5
23F
331
1C7
  5
1C9
331
258
  5
25A
331
260
  5
262
331
268
  5
26A
331
151
  5
151
331
188
  5
188
331
112
  5
112
331
1CF
  5
1D1
331
206
  5
208
331
11A
  5
11A
331
159
  5
159
331
190
  5
190
331
245
  5
247
331
24D
  5
24F
331
198
  5
198
331
1D7
  5
1D9
331
122
  5
122
331
161
  5
161
331
20E
  5
210
331
255
  5
257
331
1A0
  5
1A0
331
12A
  5
12A
331
1DF
  5
1E1
331
216
  5
218
331
21E
  5
220
  0
LAYOUT
  5
39
102
{ACAD_REACTORS
330
2E
102
}
330
2E
100
AcDbPlotSettings
  1

  2
\\CAD-SRV01\FX DocuColor 1250 PLW
  4

  6

 40
0.0
 41
0.0
 42
0.0
 43
0.0
 44
0.0
 45
0.0
 46
0.0
 47
0.0
 48
0.0
 49
0.0
140
0.0
141
0.0
142
1.0
143
1.0
 70
  1712
 72
     0
 73
     0
 74
     0
  7

 75
     0
147
1.0
 76
     0
 77
     2
 78
   300
148
0.0
149
0.0
100
AcDbLayout
  1
Model
 70
     1
 71
     0
 10
0.0
 20
0.0
 11
12.0
 21
9.0
 12
0.0
 22
0.0
 32
0.0
 14
0.0
 24
0.0
 34
0.0
 15
0.0
 25
0.0
 35
0.0
146
0.0
 13
0.0
 23
0.0
 33
0.0
 16
1.0
 26
0.0
 36
0.0
 17
0.0
 27
1.0
 37
0.0
 76
     0
330
36
331
41
  0
LAYOUT
  5
35
102
{ACAD_REACTORS
330
2E
102
}
330
2E
100
AcDbPlotSettings
  1

  2
\\CAD-SRV01\FX DocuColor 1250 PLW
  4

  6

 40
0.0
 41
0.0
 42
0.0
 43
0.0
 44
0.0
 45
0.0
 46
0.0
 47
0.0
 48
0.0
 49
0.0
140
0.0
141
0.0
142
1.0
143
1.0
 70
   688
 72
     0
 73
     0
 74
     5
  7

 75
    16
147
1.0
 76
     0
 77
     2
 78
   300
148
0.0
149
0.0
100
AcDbLayout
  1
レイアウト1
 70
     1
 71
     1
 10
442.8699299999999
 20
269.90408
 11
862.86993
 21
566.90408
 12
0.0
 22
0.0
 32
0.0
 14
1.000000000000000E+20
 24
1.000000000000000E+20
 34
1.000000000000000E+20
 15
-1.000000000000000E+20
 25
-1.000000000000000E+20
 35
-1.000000000000000E+20
146
0.0
 13
0.0
 23
0.0
 33
0.0
 16
1.0
 26
0.0
 36
0.0
 17
0.0
 27
1.0
 37
0.0
 76
     0
330
32
  0
MATERIAL
  5
12
102
{ACAD_XDICTIONARY
360
536
102
}
102
{ACAD_REACTORS
330
10
102
}
330
10
100
AcDbMaterial
  1
ByBlock
 73
     1
 78
     1
172
     1
176
     1
270
     1
274
     1
  0
MATERIAL
  5
11
102
{ACAD_XDICTIONARY
360
534
102
}
102
{ACAD_REACTORS
330
10
102
}
330
10
100
AcDbMaterial
  1
ByLayer
 73
     1
 78
     1
172
     1
176
     1
270
     1
274
     1
  0
MATERIAL
  5
13
102
{ACAD_XDICTIONARY
360
538
102
}
102
{ACAD_REACTORS
330
10
102
}
330
10
100
AcDbMaterial
  1
Global
 73
     1
 78
     1
172
     1
176
     1
270
     1
274
     1
  0
MLEADERSTYLE
  5
339
102
{ACAD_REACTORS
330
338
102
}
330
338
100
AcDbMLeaderStyle
170
     2
171
     1
172
     0
 90
        2
 40
0.0
 41
0.0
173
     1
 91
-1056964608
340
28
 92
       -2
290
     1
 42
0.09
291
     1
 43
0.36
  3
Standard
 44
0.18
300

342
26
174
     1
178
     6
175
     1
176
     0
 93
-1056964608
 45
0.18
292
     0
297
     0
 46
0.18
 94
-1056964608
 47
1.0
 49
1.0
140
1.0
293
     1
141
0.0
294
     1
177
     0
142
1.0
295
     0
296
     0
143
0.125
1001
ACAD_MLEADERVER
1070
     2
  0
MLINESTYLE
  5
2C
102
{ACAD_REACTORS
330
2B
102
}
330
2B
100
AcDbMlineStyle
  2
STANDARD
 70
     0
  3

 62
   256
 51
90.0
 52
90.0
 71
     2
 49
0.5
 62
   256
  6
BYLAYER
 49
-0.5
 62
   256
  6
BYLAYER
  0
ACDBPLACEHOLDER
  5
F
102
{ACAD_REACTORS
330
E
102
}
330
E
  0
SCALE
  5
317
102
{ACAD_REACTORS
330
316
102
}
330
316
100
AcDbScale
 70
     0
300
1:1
140
1.0
141
1.0
290
     1
  0
SCALE
  5
318
102
{ACAD_REACTORS
330
316
102
}
330
316
100
AcDbScale
 70
     0
300
1:2
140
1.0
141
2.0
290
     0
  0
SCALE
  5
319
102
{ACAD_REACTORS
330
316
102
}
330
316
100
AcDbScale
 70
     0
300
1:4
140
1.0
141
4.0
290
     0
  0
SCALE
  5
31A
102
{ACAD_REACTORS
330
316
102
}
330
316
100
AcDbScale
 70
     0
300
1:5
140
1.0
141
5.0
290
     0
  0
SCALE
  5
31B
102
{ACAD_REACTORS
330
316
102
}
330
316
100
AcDbScale
 70
     0
300
1:8
140
1.0
141
8.0
290
     0
  0
SCALE
  5
31C
102
{ACAD_REACTORS
330
316
102
}
330
316
100
AcDbScale
 70
     0
300
1:10
140
1.0
141
10.0
290
     0
  0
SCALE
  5
31D
102
{ACAD_REACTORS
330
316
102
}
330
316
100
AcDbScale
 70
     0
300
1:16
140
1.0
141
16.0
290
     0
  0
SCALE
  5
31E
102
{ACAD_REACTORS
330
316
102
}
330
316
100
AcDbScale
 70
     0
300
1:20
140
1.0
141
20.0
290
     0
  0
SCALE
  5
31F
102
{ACAD_REACTORS
330
316
102
}
330
316
100
AcDbScale
 70
     0
300
1:30
140
1.0
141
30.0
290
     0
  0
SCALE
  5
320
102
{ACAD_REACTORS
330
316
102
}
330
316
100
AcDbScale
 70
     0
300
1:40
140
1.0
141
40.0
290
     0
  0
SCALE
  5
321
102
{ACAD_REACTORS
330
316
102
}
330
316
100
AcDbScale
 70
     0
300
1:50
140
1.0
141
50.0
290
     0
  0
SCALE
  5
322
102
{ACAD_REACTORS
330
316
102
}
330
316
100
AcDbScale
 70
     0
300
1:100
140
1.0
141
100.0
290
     0
  0
SCALE
  5
323
102
{ACAD_REACTORS
330
316
102
}
330
316
100
AcDbScale
 70
     0
300
2:1
140
2.0
141
1.0
290
     0
  0
SCALE
  5
324
102
{ACAD_REACTORS
330
316
102
}
330
316
100
AcDbScale
 70
     0
300
4:1
140
4.0
141
1.0
290
     0
  0
SCALE
  5
325
102
{ACAD_REACTORS
330
316
102
}
330
316
100
AcDbScale
 70
     0
300
8:1
140
8.0
141
1.0
290
     0
  0
SCALE
  5
326
102
{ACAD_REACTORS
330
316
102
}
330
316
100
AcDbScale
 70
     0
300
10:1
140
10.0
141
1.0
290
     0
  0
SCALE
  5
327
102
{ACAD_REACTORS
330
316
102
}
330
316
100
AcDbScale
 70
     0
300
100:1
140
100.0
141
1.0
290
     0
  0
SCALE
  5
328
102
{ACAD_REACTORS
330
316
102
}
330
316
100
AcDbScale
 70
     0
300
1/128" = 1'-0"
140
0.0078125
141
12.0
290
     0
  0
SCALE
  5
329
102
{ACAD_REACTORS
330
316
102
}
330
316
100
AcDbScale
 70
     0
300
1/64" = 1'-0"
140
0.015625
141
12.0
290
     0
  0
SCALE
  5
32A
102
{ACAD_REACTORS
330
316
102
}
330
316
100
AcDbScale
 70
     0
300
1/32" = 1'-0"
140
0.03125
141
12.0
290
     0
  0
SCALE
  5
32B
102
{ACAD_REACTORS
330
316
102
}
330
316
100
AcDbScale
 70
     0
300
1/16" = 1'-0"
140
0.0625
141
12.0
290
     0
  0
SCALE
  5
32C
102
{ACAD_REACTORS
330
316
102
}
330
316
100
AcDbScale
 70
     0
300
3/32" = 1'-0"
140
0.09375
141
12.0
290
     0
  0
SCALE
  5
32D
102
{ACAD_REACTORS
330
316
102
}
330
316
100
AcDbScale
 70
     0
300
1/8" = 1'-0"
140
0.125
141
12.0
290
     0
  0
SCALE
  5
32E
102
{ACAD_REACTORS
330
316
102
}
330
316
100
AcDbScale
 70
     0
300
3/16" = 1'-0"
140
0.1875
141
12.0
290
     0
  0
SCALE
  5
32F
102
{ACAD_REACTORS
330
316
102
}
330
316
100
AcDbScale
 70
     0
300
1/4" = 1'-0"
140
0.25
141
12.0
290
     0
  0
SCALE
  5
330
102
{ACAD_REACTORS
330
316
102
}
330
316
100
AcDbScale
 70
     0
300
3/8" = 1'-0"
140
0.375
141
12.0
290
     0
  0
SCALE
  5
331
102
{ACAD_REACTORS
330
316
102
}
330
316
100
AcDbScale
 70
     0
300
1/2" = 1'-0"
140
0.5
141
12.0
290
     0
  0
SCALE
  5
332
102
{ACAD_REACTORS
330
316
102
}
330
316
100
AcDbScale
 70
     0
300
3/4" = 1'-0"
140
0.75
141
12.0
290
     0
  0
SCALE
  5
333
102
{ACAD_REACTORS
330
316
102
}
330
316
100
AcDbScale
 70
     0
300
1" = 1'-0"
140
1.0
141
12.0
290
     0
  0
SCALE
  5
334
102
{ACAD_REACTORS
330
316
102
}
330
316
100
AcDbScale
 70
     0
300
1-1/2" = 1'-0"
140
1.5
141
12.0
290
     0
  0
SCALE
  5
335
102
{ACAD_REACTORS
330
316
102
}
330
316
100
AcDbScale
 70
     0
300
3" = 1'-0"
140
3.0
141
12.0
290
     0
  0
SCALE
  5
336
102
{ACAD_REACTORS
330
316
102
}
330
316
100
AcDbScale
 70
     0
300
6" = 1'-0"
140
6.0
141
12.0
290
     0
  0
SCALE
  5
337
102
{ACAD_REACTORS
330
316
102
}
330
316
100
AcDbScale
 70
     0
300
1'-0" = 1'-0"
140
12.0
141
12.0
290
     0
  0
TABLESTYLE
  5
31
102
{ACAD_XDICTIONARY
360
510
102
}
102
{ACAD_REACTORS
330
30
102
}
330
30
100
AcDbTableStyle
  3
Standard
 70
     0
 71
     0
 40
0.06
 41
0.06
280
     0
281
     0
  7
STANDARD
140
0.18
170
     2
 62
     0
 63
     7
283
     0
274
    -2
284
     1
 64
     0
275
    -2
285
     1
 65
     0
276
    -2
286
     1
 66
     0
277
    -2
287
     1
 67
     0
278
    -2
288
     1
 68
     0
279
    -2
289
     1
 69
     0
  7
STANDARD
140
0.25
170
     5
 62
     0
 63
     7
283
     0
274
    -2
284
     1
 64
     0
275
    -2
285
     1
 65
     0
276
    -2
286
     1
 66
     0
277
    -2
287
     1
 67
     0
278
    -2
288
     1
 68
     0
279
    -2
289
     1
 69
     0
  7
STANDARD
140
0.18
170
     5
 62
     0
 63
     7
283
     0
274
    -2
284
     1
 64
     0
275
    -2
285
     1
 65
     0
276
    -2
286
     1
 66
     0
277
    -2
287
     1
 67
     0
278
    -2
288
     1
 68
     0
279
    -2
289
     1
 69
     0
  0
VISUALSTYLE
  5
1A
102
{ACAD_REACTORS
330
14
102
}
330
14
100
AcDbVisualStyle
  2
2dWireframe
 70
     4
 71
     0
 72
     2
 73
     0
 90
        0
 40
-0.6
 41
-30.0
 62
     5
 63
     7
421
 16777215
 74
     1
 91
        4
 64
     7
 65
   257
 75
     1
175
     1
 42
1.0
 92
        0
 66
   257
 43
1.0
 76
     1
 77
     6
 78
     2
 67
     7
 79
     5
170
     0
171
     0
290
     0
174
     0
 93
        1
 44
0.0
173
     0
291
     0
 45
0.0
1001
ACAD
1000
AcDbSavedByObjectVersion
1070
     0
  0
VISUALSTYLE
  5
1C
102
{ACAD_REACTORS
330
14
102
}
330
14
100
AcDbVisualStyle
  2
3D Hidden
 70
     6
 71
     1
 72
     2
 73
     2
 90
        0
 40
-0.6
 41
-30.0
 62
     5
 63
     7
421
 16777215
 74
     2
 91
        2
 64
     7
 65
   257
 75
     2
175
     1
 42
40.0
 92
        0
 66
   257
 43
1.0
 76
     1
 77
     6
 78
     2
 67
     7
 79
     3
170
     0
171
     0
290
     0
174
     0
 93
        1
 44
0.0
173
     0
291
     0
 45
0.0
1001
ACAD
1000
AcDbSavedByObjectVersion
1070
     0
  0
VISUALSTYLE
  5
1B
102
{ACAD_REACTORS
330
14
102
}
330
14
100
AcDbVisualStyle
  2
3dWireframe
 70
     5
 71
     0
 72
     2
 73
     0
 90
        0
 40
-0.6
 41
-30.0
 62
     5
 63
     7
421
 16777215
 74
     1
 91
        4
 64
     7
 65
   257
 75
     1
175
     1
 42
1.0
 92
        0
 66
   257
 43
1.0
 76
     1
 77
     6
 78
     2
 67
     7
 79
     5
170
     0
171
     0
290
     0
174
     0
 93
        1
 44
0.0
173
     0
291
     0
 45
0.0
1001
ACAD
1000
AcDbSavedByObjectVersion
1070
     0
  0
VISUALSTYLE
  5
19
102
{ACAD_REACTORS
330
14
102
}
330
14
100
AcDbVisualStyle
  2
Basic
 70
     7
 71
     1
 72
     0
 73
     1
 90
        0
 40
-0.6
 41
-30.0
 62
     5
 63
     7
421
 16777215
 74
     0
 91
        4
 64
     7
 65
   257
 75
     1
175
     1
 42
1.0
 92
        8
 66
     7
 43
1.0
 76
     1
 77
     6
 78
     2
 67
     7
 79
     5
170
     0
171
     0
290
     0
174
     0
 93
        1
 44
0.0
173
     0
291
     1
 45
0.0
1001
ACAD
1000
AcDbSavedByObjectVersion
1070
     0
  0
VISUALSTYLE
  5
20
102
{ACAD_REACTORS
330
14
102
}
330
14
100
AcDbVisualStyle
  2
Brighten
 70
    12
 71
     2
 72
     2
 73
     0
 90
        0
 40
-0.6
 41
-30.0
 62
     5
 63
     7
421
 16777215
 74
     1
 91
        4
 64
     7
 65
   257
 75
     1
175
     1
 42
1.0
 92
        8
 66
     7
 43
1.0
 76
     1
 77
     6
 78
     2
 67
     7
 79
     5
170
     0
171
     0
290
     0
174
     0
 93
        1
 44
50.0
173
     0
291
     1
 45
0.0
1001
ACAD
1000
AcDbSavedByObjectVersion
1070
     0
  0
VISUALSTYLE
  5
24
102
{ACAD_REACTORS
330
14
102
}
330
14
100
AcDbVisualStyle
  2
ColorChange
 70
    16
 71
     2
 72
     2
 73
     3
 90
        0
 40
-0.6
 41
-30.0
 62
     5
 63
     8
421
  8421504
 74
     1
 91
        4
 64
     7
 65
   257
 75
     1
175
     1
 42
1.0
 92
        8
 66
     8
424
  8421504
 43
1.0
 76
     1
 77
     6
 78
     2
 67
     7
 79
     5
170
     0
171
     0
290
     0
174
     0
 93
        1
 44
0.0
173
     0
291
     1
 45
0.0
1001
ACAD
1000
AcDbSavedByObjectVersion
1070
     0
  0
VISUALSTYLE
  5
1D
102
{ACAD_REACTORS
330
14
102
}
330
14
100
AcDbVisualStyle
  2
Conceptual
 70
     9
 71
     3
 72
     2
 73
     0
 90
        0
 40
-0.6
 41
-30.0
 62
     5
 63
     7
421
 16777215
 74
     2
 91
        2
 64
     7
 65
   257
 75
     1
175
     1
 42
40.0
 92
        8
 66
     7
 43
1.0
 76
     1
 77
     6
 78
     2
 67
     7
 79
     3
170
     0
171
     0
290
     0
174
     0
 93
        1
 44
0.0
173
     0
291
     0
 45
0.0
1001
ACAD
1000
AcDbSavedByObjectVersion
1070
     0
  0
VISUALSTYLE
  5
1F
102
{ACAD_REACTORS
330
14
102
}
330
14
100
AcDbVisualStyle
  2
Dim
 70
    11
 71
     2
 72
     2
 73
     0
 90
        0
 40
-0.6
 41
-30.0
 62
     5
 63
     7
421
 16777215
 74
     1
 91
        4
 64
     7
 65
   257
 75
     1
175
     1
 42
1.0
 92
        8
 66
     7
 43
1.0
 76
     1
 77
     6
 78
     2
 67
     7
 79
     5
170
     0
171
     0
290
     0
174
     0
 93
        1
 44
-50.0
173
     0
291
     1
 45
0.0
1001
ACAD
1000
AcDbSavedByObjectVersion
1070
     0
  0
VISUALSTYLE
  5
23
102
{ACAD_REACTORS
330
14
102
}
330
14
100
AcDbVisualStyle
  2
Facepattern
 70
    15
 71
     2
 72
     2
 73
     0
 90
        0
 40
-0.6
 41
-30.0
 62
     5
 63
     7
421
 16777215
 74
     1
 91
        4
 64
     7
 65
   257
 75
     1
175
     1
 42
1.0
 92
        8
 66
     7
 43
1.0
 76
     1
 77
     6
 78
     2
 67
     7
 79
     5
170
     0
171
     0
290
     0
174
     0
 93
        1
 44
0.0
173
     0
291
     1
 45
0.0
1001
ACAD
1000
AcDbSavedByObjectVersion
1070
     0
  0
VISUALSTYLE
  5
15
102
{ACAD_REACTORS
330
14
102
}
330
14
100
AcDbVisualStyle
  2
Flat
 70
     0
 71
     2
 72
     1
 73
     1
 90
        2
 40
-0.6
 41
30.0
 62
     5
 63
     7
421
 16777215
 74
     0
 91
        4
 64
     7
 65
   257
 75
     1
175
     1
 42
1.0
 92
        8
 66
     7
 43
1.0
 76
     1
 77
     6
 78
     2
 67
     7
 79
     5
170
     0
171
     0
290
     0
174
     0
 93
       13
 44
0.0
173
     0
291
     1
 45
0.0
1001
ACAD
1000
AcDbSavedByObjectVersion
1070
     0
  0
VISUALSTYLE
  5
16
102
{ACAD_REACTORS
330
14
102
}
330
14
100
AcDbVisualStyle
  2
FlatWithEdges
 70
     1
 71
     2
 72
     1
 73
     1
 90
        2
 40
-0.6
 41
30.0
 62
     5
 63
     7
421
 16777215
 74
     1
 91
        4
 64
     7
 65
   257
 75
     1
175
     1
 42
1.0
 92
        0
 66
   257
 43
1.0
 76
     1
 77
     6
 78
     2
 67
     7
 79
     5
170
     0
171
     0
290
     0
174
     0
 93
       13
 44
0.0
173
     0
291
     1
 45
0.0
1001
ACAD
1000
AcDbSavedByObjectVersion
1070
     0
  0
VISUALSTYLE
  5
17
102
{ACAD_REACTORS
330
14
102
}
330
14
100
AcDbVisualStyle
  2
Gouraud
 70
     2
 71
     2
 72
     2
 73
     1
 90
        2
 40
-0.6
 41
30.0
 62
     5
 63
     7
421
 16777215
 74
     0
 91
        4
 64
     7
 65
   257
 75
     1
175
     1
 42
1.0
 92
        0
 66
     7
 43
1.0
 76
     1
 77
     6
 78
     2
 67
     7
 79
     5
170
     0
171
     0
290
     0
174
     0
 93
       13
 44
0.0
173
     0
291
     1
 45
0.0
1001
ACAD
1000
AcDbSavedByObjectVersion
1070
     0
  0
VISUALSTYLE
  5
18
102
{ACAD_REACTORS
330
14
102
}
330
14
100
AcDbVisualStyle
  2
GouraudWithEdges
 70
     3
 71
     2
 72
     2
 73
     1
 90
        2
 40
-0.6
 41
30.0
 62
     5
 63
     7
421
 16777215
 74
     1
 91
        4
 64
     7
 65
   257
 75
     1
175
     1
 42
1.0
 92
        0
 66
   257
 43
1.0
 76
     1
 77
     6
 78
     2
 67
     7
 79
     5
170
     0
171
     0
290
     0
174
     0
 93
       13
 44
0.0
173
     0
291
     1
 45
0.0
1001
ACAD
1000
AcDbSavedByObjectVersion
1070
     0
  0
VISUALSTYLE
  5
22
102
{ACAD_REACTORS
330
14
102
}
330
14
100
AcDbVisualStyle
  2
Linepattern
 70
    14
 71
     2
 72
     2
 73
     0
 90
        0
 40
-0.6
 41
-30.0
 62
     5
 63
     7
421
 16777215
 74
     1
 91
        4
 64
     7
 65
   257
 75
     7
175
     7
 42
1.0
 92
        8
 66
     7
 43
1.0
 76
     1
 77
     6
 78
     2
 67
     7
 79
     5
170
     0
171
     0
290
     0
174
     0
 93
        1
 44
0.0
173
     0
291
     1
 45
0.0
1001
ACAD
1000
AcDbSavedByObjectVersion
1070
     0
  0
VISUALSTYLE
  5
1E
102
{ACAD_REACTORS
330
14
102
}
330
14
100
AcDbVisualStyle
  2
Realistic
 70
     8
 71
     2
 72
     2
 73
     0
 90
        0
 40
-0.6
 41
-30.0
 62
     5
 63
     7
421
 16777215
 74
     1
 91
        0
 64
     7
 65
   257
 75
     1
175
     1
 42
1.0
 92
        8
 66
     8
424
  7895160
 43
1.0
 76
     1
 77
     6
 78
     2
 67
     7
 79
     5
170
     0
171
     0
290
     0
174
     0
 93
       13
 44
0.0
173
     0
291
     0
 45
0.0
1001
ACAD
1000
AcDbSavedByObjectVersion
1070
     0
  0
VISUALSTYLE
  5
21
102
{ACAD_REACTORS
330
14
102
}
330
14
100
AcDbVisualStyle
  2
Thicken
 70
    13
 71
     2
 72
     2
 73
     0
 90
        0
 40
-0.6
 41
-30.0
 62
     5
 63
     7
421
 16777215
 74
     1
 91
        4
 64
     7
 65
   257
 75
     1
175
     1
 42
1.0
 92
       12
 66
     7
 43
1.0
 76
     1
 77
     6
 78
     2
 67
     7
 79
     5
170
     0
171
     0
290
     0
174
     0
 93
        1
 44
0.0
173
     0
291
     1
 45
0.0
1001
ACAD
1000
AcDbSavedByObjectVersion
1070
     0
  0
DICTIONARYVAR
  5
515
102
{ACAD_REACTORS
330
313
102
}
330
313
100
DictionaryVariables
280
     0
  1
1:1
  0
DICTIONARYVAR
  5
513
102
{ACAD_REACTORS
330
313
102
}
330
313
100
DictionaryVariables
280
     0
  1
STANDARD
  0
DICTIONARYVAR
  5
314
102
{ACAD_REACTORS
330
313
102
}
330
313
100
DictionaryVariables
280
     0
  1
STANDARD
  0
DICTIONARYVAR
  5
516
102
{ACAD_REACTORS
330
313
102
}
330
313
100
DictionaryVariables
280
     0
  1
0
  0
DICTIONARYVAR
  5
514
102
{ACAD_REACTORS
330
313
102
}
330
313
100
DictionaryVariables
280
     0
  1
0
  0
DICTIONARY
  5
2D4
102
{ACAD_REACTORS
330
2C9
102
}
330
2C9
100
AcDbDictionary
281
     1
  0
XRECORD
  5
2F5
102
{ACAD_REACTORS
330
2C9
102
}
330
2C9
100
AcDbXrecord
280
     1
 90
-1023410169
  0
DICTIONARY
  5
536
330
12
100
AcDbDictionary
280
     1
281
     1
  3
ACAD_XREC_ROUNDTRIP
360
537
  0
DICTIONARY
  5
534
330
11
100
AcDbDictionary
280
     1
281
     1
  3
ACAD_XREC_ROUNDTRIP
360
535
  0
DICTIONARY
  5
538
330
13
100
AcDbDictionary
280
     1
281
     1
  3
ACAD_XREC_ROUNDTRIP
360
539
  0
DICTIONARY
  5
510
330
31
100
AcDbDictionary
280
     1
281
     1
  3
ACAD_ROUNDTRIP_2008_TABLESTYLE_CELLSTYLEMAP
360
533
  3
ACAD_XREC_ROUNDTRIP
360
53A
  0
XRECORD
  5
537
102
{ACAD_REACTORS
330
536
102
}
330
536
100
AcDbXrecord
280
     1
102
MATERIAL
148
0.0
149
0.0
149
0.0
 93
        0
 94
       63
282
     0
 72
     1
 77
     1
171
     1
175
     1
179
     1
273
     0
  0
XRECORD
  5
535
102
{ACAD_REACTORS
330
534
102
}
330
534
100
AcDbXrecord
280
     1
102
MATERIAL
148
0.0
149
0.0
149
0.0
 93
        0
 94
       63
282
     0
 72
     1
 77
     1
171
     1
175
     1
179
     1
273
     0
  0
XRECORD
  5
539
102
{ACAD_REACTORS
330
538
102
}
330
538
100
AcDbXrecord
280
     1
102
MATERIAL
148
0.0
149
0.0
149
0.0
 93
        0
 94
       63
282
     0
 72
     1
 77
     1
171
     1
175
     1
179
     1
273
     0
  0
CELLSTYLEMAP
  5
533
102
{ACAD_REACTORS
330
510
102
}
330
510
100
AcDbCellStyleMap
 90
        3
300
CELLSTYLE
  1
TABLEFORMAT_BEGIN
 90
        5
170
     1
 91
        0
 92
    32768
 62
   257
 93
        1
300
CONTENTFORMAT
  1
CONTENTFORMAT_BEGIN
 90
        0
 91
        0
 92
      512
 93
        0
300

 40
0.0
140
1.0
 94
        5
 62
     0
340
26
144
0.25
309
CONTENTFORMAT_END
171
     0
 94
        6
 95
        1
302
GRIDFORMAT
  1
GRIDFORMAT_BEGIN
 90
        0
 91
        1
 62
     0
 92
       -2
340
0
 93
        0
 40
0.045
309
GRIDFORMAT_END
 95
        2
302
GRIDFORMAT
  1
GRIDFORMAT_BEGIN
 90
        0
 91
        1
 62
     0
 92
       -2
340
0
 93
        0
 40
0.045
309
GRIDFORMAT_END
 95
        4
302
GRIDFORMAT
  1
GRIDFORMAT_BEGIN
 90
        0
 91
        1
 62
     0
 92
       -2
340
0
 93
        0
 40
0.045
309
GRIDFORMAT_END
 95
        8
302
GRIDFORMAT
  1
GRIDFORMAT_BEGIN
 90
        0
 91
        1
 62
     0
 92
       -2
340
0
 93
        0
 40
0.045
309
GRIDFORMAT_END
 95
       16
302
GRIDFORMAT
  1
GRIDFORMAT_BEGIN
 90
        0
 91
        1
 62
     0
 92
       -2
340
0
 93
        0
 40
0.045
309
GRIDFORMAT_END
 95
       32
302
GRIDFORMAT
  1
GRIDFORMAT_BEGIN
 90
        0
 91
        1
 62
     0
 92
       -2
340
0
 93
        0
 40
0.045
309
GRIDFORMAT_END
309
TABLEFORMAT_END
  1
CELLSTYLE_BEGIN
 90
        1
 91
        1
300
_TITLE
309
CELLSTYLE_END
300
CELLSTYLE
  1
TABLEFORMAT_BEGIN
 90
        5
170
     1
 91
        0
 92
        0
 62
   257
 93
        1
300
CONTENTFORMAT
  1
CONTENTFORMAT_BEGIN
 90
        0
 91
        0
 92
      512
 93
        0
300

 40
0.0
140
1.0
 94
        5
 62
     0
340
26
144
0.18
309
CONTENTFORMAT_END
171
     0
 94
        6
 95
        1
302
GRIDFORMAT
  1
GRIDFORMAT_BEGIN
 90
        0
 91
        1
 62
     0
 92
       -2
340
0
 93
        0
 40
0.045
309
GRIDFORMAT_END
 95
        2
302
GRIDFORMAT
  1
GRIDFORMAT_BEGIN
 90
        0
 91
        1
 62
     0
 92
       -2
340
0
 93
        0
 40
0.045
309
GRIDFORMAT_END
 95
        4
302
GRIDFORMAT
  1
GRIDFORMAT_BEGIN
 90
        0
 91
        1
 62
     0
 92
       -2
340
0
 93
        0
 40
0.045
309
GRIDFORMAT_END
 95
        8
302
GRIDFORMAT
  1
GRIDFORMAT_BEGIN
 90
        0
 91
        1
 62
     0
 92
       -2
340
0
 93
        0
 40
0.045
309
GRIDFORMAT_END
 95
       16
302
GRIDFORMAT
  1
GRIDFORMAT_BEGIN
 90
        0
 91
        1
 62
     0
 92
       -2
340
0
 93
        0
 40
0.045
309
GRIDFORMAT_END
 95
       32
302
GRIDFORMAT
  1
GRIDFORMAT_BEGIN
 90
        0
 91
        1
 62
     0
 92
       -2
340
0
 93
        0
 40
0.045
309
GRIDFORMAT_END
309
TABLEFORMAT_END
  1
CELLSTYLE_BEGIN
 90
        2
 91
        1
300
_HEADER
309
CELLSTYLE_END
300
CELLSTYLE
  1
TABLEFORMAT_BEGIN
 90
        5
170
     1
 91
        0
 92
        0
 62
   257
 93
        1
300
CONTENTFORMAT
  1
CONTENTFORMAT_BEGIN
 90
        0
 91
        0
 92
      512
 93
        0
300

 40
0.0
140
1.0
 94
        2
 62
     0
340
26
144
0.18
309
CONTENTFORMAT_END
171
     0
 94
        6
 95
        1
302
GRIDFORMAT
  1
GRIDFORMAT_BEGIN
 90
        0
 91
        1
 62
     0
 92
       -2
340
0
 93
        0
 40
0.045
309
GRIDFORMAT_END
 95
        2
302
GRIDFORMAT
  1
GRIDFORMAT_BEGIN
 90
        0
 91
        1
 62
     0
 92
       -2
340
0
 93
        0
 40
0.045
309
GRIDFORMAT_END
 95
        4
302
GRIDFORMAT
  1
GRIDFORMAT_BEGIN
 90
        0
 91
        1
 62
     0
 92
       -2
340
0
 93
        0
 40
0.045
309
GRIDFORMAT_END
 95
        8
302
GRIDFORMAT
  1
GRIDFORMAT_BEGIN
 90
        0
 91
        1
 62
     0
 92
       -2
340
0
 93
        0
 40
0.045
309
GRIDFORMAT_END
 95
       16
302
GRIDFORMAT
  1
GRIDFORMAT_BEGIN
 90
        0
 91
        1
 62
     0
 92
       -2
340
0
 93
        0
 40
0.045
309
GRIDFORMAT_END
 95
       32
302
GRIDFORMAT
  1
GRIDFORMAT_BEGIN
 90
        0
 91
        1
 62
     0
 92
       -2
340
0
 93
        0
 40
0.045
309
GRIDFORMAT_END
309
TABLEFORMAT_END
  1
CELLSTYLE_BEGIN
 90
        3
 91
        2
300
_DATA
309
CELLSTYLE_END
  0
XRECORD
  5
53A
102
{ACAD_REACTORS
330
510
102
}
330
510
100
AcDbXrecord
280
     1
102
ACAD_ROUNDTRIP_PRE2007_TABLESTYLE
 90
      512
 91
        0
  1

 92
      512
 93
        0
  2

 94
      512
 95
        0
  3

  0
ENDSEC
  0
EOF
