  0
SECTION
  2
HEADER
  9
$ACADVER
  1
AC1009
  9
$INSBASE
 10
0.0
 20
0.0
 30
0.0
  9
$EXTMIN
 10
0.0
 20
0.0
 30
0.0
  9
$EXTMAX
 10
856.81833708333238
 20
567.53679999999952
 30
0.0
  9
$LIMMIN
 10
405.15167000000002
 20
268.03676999999999
  9
$LIMMAX
 10
825.15166999999985
 20
565.03677000000016
  9
$ORTHOMODE
 70
     0
  9
$REGENMODE
 70
     1
  9
$FILLMODE
 70
     1
  9
$QTEXTMODE
 70
     0
  9
$MIRRTEXT
 70
     1
  9
$DRAGMODE
 70
     2
  9
$LTSCALE
 40
1.0
  9
$OSMODE
 70
    37
  9
$ATTMODE
 70
     1
  9
$TEXTSIZE
 40
0.2
  9
$TRACEWID
 40
0.05
  9
$TEXTSTYLE
  7
STANDARD
  9
$CLAYER
  8
0
  9
$CELTYPE
  6
CONTINUOUS
  9
$CECOLOR
 62
   256
  9
$DIMSCALE
 40
1.0
  9
$DIMASZ
 40
1.0
  9
$DIMEXO
 40
2.54
  9
$DIMDLI
 40
0.38
  9
$DIMRND
 40
0.0
  9
$DIMDLE
 40
0.0
  9
$DIMEXE
 40
2.54
  9
$DIMTP
 40
0.0
  9
$DIMTM
 40
0.0
  9
$DIMTXT
 40
3.2000000000000002
  9
$DIMCEN
 40
0.09
  9
$DIMTSZ
 40
0.0
  9
$DIMTOL
 70
     0
  9
$DIMLIM
 70
     0
  9
$DIMTIH
 70
     0
  9
$DIMTOH
 70
     0
  9
$DIMSE1
 70
     0
  9
$DIMSE2
 70
     0
  9
$DIMTAD
 70
     1
  9
$DIMZIN
 70
     0
  9
$DIMBLK
  1

  9
$DIMASO
 70
     1
  9
$DIMSHO
 70
     0
  9
$DIMPOST
  1

  9
$DIMAPOST
  1

  9
$DIMALT
 70
     0
  9
$DIMALTD
 70
     2
  9
$DIMALTF
 40
25.399999999999999
  9
$DIMLFAC
 40
1.0
  9
$DIMTOFL
 70
     0
  9
$DIMTVP
 40
1.0
  9
$DIMTIX
 70
     0
  9
$DIMSOXD
 70
     0
  9
$DIMSAH
 70
     1
  9
$DIMBLK1
  1

  9
$DIMBLK2
  1

  9
$DIMSTYLE
  2
STANDARD
  9
$DIMCLRD
 70
     0
  9
$DIMCLRE
 70
     0
  9
$DIMCLRT
 70
     0
  9
$DIMTFAC
 40
1.0
  9
$DIMGAP
 40
1.6000000000000001
  9
$LUNITS
 70
     2
  9
$LUPREC
 70
     4
  9
$SKETCHINC
 40
0.1
  9
$FILLETRAD
 40
0.0
  9
$AUNITS
 70
     0
  9
$AUPREC
 70
     0
  9
$MENU
  1
.
  9
$ELEVATION
 40
0.0
  9
$PELEVATION
 40
0.0
  9
$THICKNESS
 40
0.0
  9
$LIMCHECK
 70
     0
  9
$BLIPMODE
 70
     0
  9
$CHAMFERA
 40
0.0
  9
$CHAMFERB
 40
0.0
  9
$SKPOLY
 70
     0
  9
$TDCREATE
 40
2452809.688576817
  9
$TDUPDATE
 40
2452811.6490715621
  9
$TDINDWG
 40
0.024846713
  9
$TDUSRTIMER
 40
0.0248463657
  9
$USRTIMER
 70
     1
  9
$ANGBASE
 50
0.0
  9
$ANGDIR
 70
     0
  9
$PDMODE
 70
     0
  9
$PDSIZE
 40
0.0
  9
$PLINEWID
 40
0.0
  9
$COORDS
 70
     1
  9
$SPLFRAME
 70
     0
  9
$SPLINETYPE
 70
     6
  9
$SPLINESEGS
 70
     8
  9
$ATTDIA
 70
     0
  9
$ATTREQ
 70
     1
  9
$HANDLING
 70
 22529
  9
$HANDSEED
  5
A82
  9
$SURFTAB1
 70
     6
  9
$SURFTAB2
 70
     6
  9
$SURFTYPE
 70
     6
  9
$SURFU
 70
     6
  9
$SURFV
 70
     6
  9
$UCSNAME
  2

  9
$UCSORG
 10
0.0
 20
0.0
 30
0.0
  9
$UCSXDIR
 10
1.0
 20
0.0
 30
0.0
  9
$UCSYDIR
 10
0.0
 20
1.0
 30
0.0
  9
$PUCSNAME
  2

  9
$PUCSORG
 10
0.0
 20
0.0
 30
0.0
  9
$PUCSXDIR
 10
1.0
 20
0.0
 30
0.0
  9
$PUCSYDIR
 10
0.0
 20
1.0
 30
0.0
  9
$USERI1
 70
     0
  9
$USERI2
 70
     0
  9
$USERI3
 70
     0
  9
$USERI4
 70
     0
  9
$USERI5
 70
     0
  9
$USERR1
 40
0.0
  9
$USERR2
 40
0.0
  9
$USERR3
 40
0.0
  9
$USERR4
 40
0.0
  9
$USERR5
 40
0.0
  9
$WORLDVIEW
 70
     1
  9
$SHADEDGE
 70
     3
  9
$SHADEDIF
 70
    70
  9
$TILEMODE
 70
     1
  9
$MAXACTVP
 70
    64
  9
$PLIMCHECK
 70
     0
  9
$PEXTMIN
 10
1.0000000000000000E+020
 20
1.0000000000000000E+020
 30
1.0000000000000000E+020
  9
$PEXTMAX
 10
-1.0000000000000000E+020
 20
-1.0000000000000000E+020
 30
-1.0000000000000000E+020
  9
$PLIMMIN
 10
405.15167000000002
 20
268.03676999999999
  9
$PLIMMAX
 10
825.15166999999985
 20
565.03677000000016
  9
$UNITMODE
 70
     0
  9
$VISRETAIN
 70
     1
  9
$PLINEGEN
 70
     0
  9
$PSLTSCALE
 70
     1
  0
ENDSEC
  0
SECTION
  2
TABLES
  0
TABLE
  2
VPORT
 70
     2
  0
VPORT
  2
*ACTIVE
 70
     0
 10
0.0
 20
0.0
 11
1.0
 21
1.0
 12
719.11867859415463
 22
447.06621156022419
 13
0.0
 23
0.0
 14
1.0
 24
1.0
 15
0.0
 25
0.0
 16
0.0
 26
0.0
 36
1.0
 17
0.0
 27
0.0
 37
0.0
 40
35.262659239941058
 41
1.5139593908629441
 42
50.0
 43
0.0
 44
0.0
 50
0.0
 51
0.0
 71
     0
 72
   100
 73
     1
 74
     1
 75
     0
 76
     0
 77
     0
 78
     0
  0
ENDTAB
  0
TABLE
  2
LTYPE
 70
     6
  0
LTYPE
  2
CONTINUOUS
 70
     0
  3
Solid line
 72
    65
 73
     0
 40
0.0
  0
LTYPE
  2
DASHED
 70
     0
  3
__ __ __ __ __ __ __ __ __ __ __ __ __ __ __
 72
    65
 73
     2
 40
3.5
 49
2.0
 49
-1.5
  0
LTYPE
  2
CENTER
 70
     0
  3
____ _ ____ _ ____ _ ____ _ ____ _ ____ _ ____
 72
    65
 73
     4
 40
17.5
 49
13.0
 49
-1.5
 49
1.5
 49
-1.5
  0
LTYPE
  2
PHANTOM
 70
     0
  3
_____ _ _ _____ _ _ _____ _ _ _____ _ _ ____  
 72
    65
 73
     6
 40
15.5
 49
8.0
 49
-1.5
 49
1.5
 49
-1.5
 49
1.5
 49
-1.5
  0
LTYPE
  2
DOT
 70
     0
  3
. . . . . . . . . . . . . . . . . . . . . . . .
 72
    65
 73
     2
 40
0.25
 49
0.0
 49
-0.25
  0
LTYPE
  2
HIDDEN
 70
     0
  3
__ __ __ __ __ __ __ __ __ __ __ __ __ __ __
 72
    65
 73
     2
 40
3.5
 49
2.0
 49
-1.5
  0
ENDTAB
  0
TABLE
  2
LAYER
 70
     1
  0
LAYER
  2
0
 70
     0
 62
     7
  6
CONTINUOUS
  0
ENDTAB
  0
TABLE
  2
STYLE
 70
     1
  0
STYLE
  2
STANDARD
 70
     0
 40
0.0
 41
1.0
 50
0.0
 71
     0
 42
0.2
  3
txt
  4
BIGFONT
  0
ENDTAB
  0
TABLE
  2
VIEW
 70
     0
  0
ENDTAB
  0
TABLE
  2
UCS
 70
     0
  0
ENDTAB
  0
TABLE
  2
APPID
 70
     1
  0
APPID
  2
ACAD
 70
     0
  0
ENDTAB
  0
TABLE
  2
DIMSTYLE
 70
     1
  0
DIMSTYLE
  2
STANDARD
 70
     0
  3

  4

  5

  6

  7

 40
1.0
 41
0.18
 42
0.0625
 43
0.38
 44
0.18
 45
0.0
 46
0.0
 47
0.0
 48
0.0
140
0.18
141
0.09
142
0.0
143
25.399999999999999
144
1.0
145
0.0
146
1.0
147
0.09
 71
     0
 72
     0
 73
     1
 74
     1
 75
     0
 76
     0
 77
     0
 78
     0
170
     0
171
     2
172
     0
173
     0
174
     0
175
     0
176
     0
177
     0
178
     0
  0
ENDTAB
  0
ENDSEC
  0
SECTION
  2
BLOCKS
  0
BLOCK
  8
0
  2
$MODEL_SPACE
 70
     0
 10
0.0
 20
0.0
 30
0.0
  3
$MODEL_SPACE
  1

  0
ENDBLK
  5
7FF
  8
0
  0
BLOCK
 67
     1
  8
0
  2
$PAPER_SPACE
 70
     0
 10
0.0
 20
0.0
 30
0.0
  3
$PAPER_SPACE
  1

  0
ENDBLK
  5
7FB
 67
     1
  8
0
  0
BLOCK
  8
0
  2
KOZU0001
 70
     0
 10
0.0
 20
0.0
 30
0.0
  3
KOZU0001
  1

  0
POLYLINE
  5
812
  8
0
  6
CONTINUOUS
 62
     7
 66
     1
 10
0.0
 20
0.0
 30
0.0
 70
     1
 40
0.4000000100000002
 41
0.4000000100000002
  0
VERTEX
  5
A28
  8
0
  6
CONTINUOUS
 62
     7
 10
-0.2
 20
0.0
 30
0.0
 42
1.0
  0
VERTEX
  5
A29
  8
0
  6
CONTINUOUS
 62
     7
 10
0.2
 20
0.0
 30
0.0
 42
1.0
  0
SEQEND
  5
A2A
  8
0
  6
CONTINUOUS
 62
     7
  0
ENDBLK
  5
816
  8
0
  0
BLOCK
  8
0
  2
KOZU0002
 70
     0
 10
0.0
 20
0.0
 30
0.0
  3
KOZU0002
  1

  0
POLYLINE
  5
819
  8
0
  6
CONTINUOUS
 62
     7
 66
     1
 10
0.0
 20
0.0
 30
0.0
 70
     1
 40
0.4000000100000002
 41
0.4000000100000002
  0
VERTEX
  5
A2B
  8
0
  6
CONTINUOUS
 62
     7
 10
-0.2
 20
0.0
 30
0.0
 42
1.0
  0
VERTEX
  5
A2C
  8
0
  6
CONTINUOUS
 62
     7
 10
0.2
 20
0.0
 30
0.0
 42
1.0
  0
SEQEND
  5
A2D
  8
0
  6
CONTINUOUS
 62
     7
  0
ENDBLK
  5
81D
  8
0
  0
BLOCK
  8
0
  2
KOZU0003
 70
     0
 10
0.0
 20
0.0
 30
0.0
  3
KOZU0003
  1

  0
POLYLINE
  5
820
  8
0
  6
CONTINUOUS
 62
     7
 66
     1
 10
0.0
 20
0.0
 30
0.0
 70
     1
 40
0.4000000100000002
 41
0.4000000100000002
  0
VERTEX
  5
A2E
  8
0
  6
CONTINUOUS
 62
     7
 10
-0.2
 20
0.0
 30
0.0
 42
1.0
  0
VERTEX
  5
A2F
  8
0
  6
CONTINUOUS
 62
     7
 10
0.2
 20
0.0
 30
0.0
 42
1.0
  0
SEQEND
  5
A30
  8
0
  6
CONTINUOUS
 62
     7
  0
ENDBLK
  5
824
  8
0
  0
BLOCK
  8
0
  2
KOZU0004
 70
     0
 10
0.0
 20
0.0
 30
0.0
  3
KOZU0004
  1

  0
POLYLINE
  5
827
  8
0
  6
CONTINUOUS
 62
     7
 66
     1
 10
0.0
 20
0.0
 30
0.0
 70
     1
 40
0.4000000100000002
 41
0.4000000100000002
  0
VERTEX
  5
A31
  8
0
  6
CONTINUOUS
 62
     7
 10
-0.2
 20
0.0
 30
0.0
 42
1.0
  0
VERTEX
  5
A32
  8
0
  6
CONTINUOUS
 62
     7
 10
0.2
 20
0.0
 30
0.0
 42
1.0
  0
SEQEND
  5
A33
  8
0
  6
CONTINUOUS
 62
     7
  0
ENDBLK
  5
82B
  8
0
  0
BLOCK
  8
0
  2
KOZU0005
 70
     0
 10
0.0
 20
0.0
 30
0.0
  3
KOZU0005
  1

  0
POLYLINE
  5
82E
  8
0
  6
CONTINUOUS
 62
     7
 66
     1
 10
0.0
 20
0.0
 30
0.0
 70
     1
 40
0.4000000100000002
 41
0.4000000100000002
  0
VERTEX
  5
A34
  8
0
  6
CONTINUOUS
 62
     7
 10
-0.2
 20
0.0
 30
0.0
 42
1.0
  0
VERTEX
  5
A35
  8
0
  6
CONTINUOUS
 62
     7
 10
0.2
 20
0.0
 30
0.0
 42
1.0
  0
SEQEND
  5
A36
  8
0
  6
CONTINUOUS
 62
     7
  0
ENDBLK
  5
832
  8
0
  0
BLOCK
  8
0
  2
KOZU0006
 70
     0
 10
0.0
 20
0.0
 30
0.0
  3
KOZU0006
  1

  0
POLYLINE
  5
835
  8
0
  6
CONTINUOUS
 62
     7
 66
     1
 10
0.0
 20
0.0
 30
0.0
 70
     1
 40
0.4000000100000002
 41
0.4000000100000002
  0
VERTEX
  5
A37
  8
0
  6
CONTINUOUS
 62
     7
 10
-0.2
 20
0.0
 30
0.0
 42
1.0
  0
VERTEX
  5
A38
  8
0
  6
CONTINUOUS
 62
     7
 10
0.2
 20
0.0
 30
0.0
 42
1.0
  0
SEQEND
  5
A39
  8
0
  6
CONTINUOUS
 62
     7
  0
ENDBLK
  5
839
  8
0
  0
BLOCK
  8
0
  2
KOZU0007
 70
     0
 10
0.0
 20
0.0
 30
0.0
  3
KOZU0007
  1

  0
POLYLINE
  5
83C
  8
0
  6
CONTINUOUS
 62
     7
 66
     1
 10
0.0
 20
0.0
 30
0.0
 70
     1
 40
0.4000000100000002
 41
0.4000000100000002
  0
VERTEX
  5
A3A
  8
0
  6
CONTINUOUS
 62
     7
 10
-0.2
 20
0.0
 30
0.0
 42
1.0
  0
VERTEX
  5
A3B
  8
0
  6
CONTINUOUS
 62
     7
 10
0.2
 20
0.0
 30
0.0
 42
1.0
  0
SEQEND
  5
A3C
  8
0
  6
CONTINUOUS
 62
     7
  0
ENDBLK
  5
840
  8
0
  0
BLOCK
  8
0
  2
KOZU0008
 70
     0
 10
0.0
 20
0.0
 30
0.0
  3
KOZU0008
  1

  0
POLYLINE
  5
843
  8
0
  6
CONTINUOUS
 62
     7
 66
     1
 10
0.0
 20
0.0
 30
0.0
 70
     1
 40
0.4000000100000002
 41
0.4000000100000002
  0
VERTEX
  5
A3D
  8
0
  6
CONTINUOUS
 62
     7
 10
-0.2
 20
0.0
 30
0.0
 42
1.0
  0
VERTEX
  5
A3E
  8
0
  6
CONTINUOUS
 62
     7
 10
0.2
 20
0.0
 30
0.0
 42
1.0
  0
SEQEND
  5
A3F
  8
0
  6
CONTINUOUS
 62
     7
  0
ENDBLK
  5
847
  8
0
  0
BLOCK
  8
0
  2
KOZU0009
 70
     0
 10
0.0
 20
0.0
 30
0.0
  3
KOZU0009
  1

  0
POLYLINE
  5
84A
  8
0
  6
CONTINUOUS
 62
     7
 66
     1
 10
0.0
 20
0.0
 30
0.0
 70
     1
 40
0.4000000100000002
 41
0.4000000100000002
  0
VERTEX
  5
A40
  8
0
  6
CONTINUOUS
 62
     7
 10
-0.2
 20
0.0
 30
0.0
 42
1.0
  0
VERTEX
  5
A41
  8
0
  6
CONTINUOUS
 62
     7
 10
0.2
 20
0.0
 30
0.0
 42
1.0
  0
SEQEND
  5
A42
  8
0
  6
CONTINUOUS
 62
     7
  0
ENDBLK
  5
84E
  8
0
  0
BLOCK
  8
0
  2
KOZU0010
 70
     0
 10
0.0
 20
0.0
 30
0.0
  3
KOZU0010
  1

  0
POLYLINE
  5
851
  8
0
  6
CONTINUOUS
 62
     7
 66
     1
 10
0.0
 20
0.0
 30
0.0
 70
     1
 40
0.4000000100000002
 41
0.4000000100000002
  0
VERTEX
  5
A43
  8
0
  6
CONTINUOUS
 62
     7
 10
-0.2
 20
0.0
 30
0.0
 42
1.0
  0
VERTEX
  5
A44
  8
0
  6
CONTINUOUS
 62
     7
 10
0.2
 20
0.0
 30
0.0
 42
1.0
  0
SEQEND
  5
A45
  8
0
  6
CONTINUOUS
 62
     7
  0
ENDBLK
  5
855
  8
0
  0
BLOCK
  8
0
  2
KOZU0011
 70
     0
 10
0.0
 20
0.0
 30
0.0
  3
KOZU0011
  1

  0
POLYLINE
  5
858
  8
0
  6
CONTINUOUS
 62
     7
 66
     1
 10
0.0
 20
0.0
 30
0.0
 70
     1
 40
0.4000000100000002
 41
0.4000000100000002
  0
VERTEX
  5
A46
  8
0
  6
CONTINUOUS
 62
     7
 10
-0.2
 20
0.0
 30
0.0
 42
1.0
  0
VERTEX
  5
A47
  8
0
  6
CONTINUOUS
 62
     7
 10
0.2
 20
0.0
 30
0.0
 42
1.0
  0
SEQEND
  5
A48
  8
0
  6
CONTINUOUS
 62
     7
  0
ENDBLK
  5
85C
  8
0
  0
BLOCK
  8
0
  2
KOZU0012
 70
     0
 10
0.0
 20
0.0
 30
0.0
  3
KOZU0012
  1

  0
POLYLINE
  5
85F
  8
0
  6
CONTINUOUS
 62
     7
 66
     1
 10
0.0
 20
0.0
 30
0.0
 70
     1
 40
0.4000000100000002
 41
0.4000000100000002
  0
VERTEX
  5
A49
  8
0
  6
CONTINUOUS
 62
     7
 10
-0.2
 20
0.0
 30
0.0
 42
1.0
  0
VERTEX
  5
A4A
  8
0
  6
CONTINUOUS
 62
     7
 10
0.2
 20
0.0
 30
0.0
 42
1.0
  0
SEQEND
  5
A4B
  8
0
  6
CONTINUOUS
 62
     7
  0
ENDBLK
  5
863
  8
0
  0
BLOCK
  8
0
  2
KOZU0013
 70
     0
 10
0.0
 20
0.0
 30
0.0
  3
KOZU0013
  1

  0
POLYLINE
  5
866
  8
0
  6
CONTINUOUS
 62
     7
 66
     1
 10
0.0
 20
0.0
 30
0.0
 70
     1
 40
0.4000000100000002
 41
0.4000000100000002
  0
VERTEX
  5
A4C
  8
0
  6
CONTINUOUS
 62
     7
 10
-0.2
 20
0.0
 30
0.0
 42
1.0
  0
VERTEX
  5
A4D
  8
0
  6
CONTINUOUS
 62
     7
 10
0.2
 20
0.0
 30
0.0
 42
1.0
  0
SEQEND
  5
A4E
  8
0
  6
CONTINUOUS
 62
     7
  0
ENDBLK
  5
86A
  8
0
  0
BLOCK
  8
0
  2
KOZU0014
 70
     0
 10
0.0
 20
0.0
 30
0.0
  3
KOZU0014
  1

  0
POLYLINE
  5
86D
  8
0
  6
CONTINUOUS
 62
     7
 66
     1
 10
0.0
 20
0.0
 30
0.0
 70
     1
 40
0.4000000100000002
 41
0.4000000100000002
  0
VERTEX
  5
A4F
  8
0
  6
CONTINUOUS
 62
     7
 10
-0.2
 20
0.0
 30
0.0
 42
1.0
  0
VERTEX
  5
A50
  8
0
  6
CONTINUOUS
 62
     7
 10
0.2
 20
0.0
 30
0.0
 42
1.0
  0
SEQEND
  5
A51
  8
0
  6
CONTINUOUS
 62
     7
  0
ENDBLK
  5
871
  8
0
  0
BLOCK
  8
0
  2
KOZU0015
 70
     0
 10
0.0
 20
0.0
 30
0.0
  3
KOZU0015
  1

  0
POLYLINE
  5
874
  8
0
  6
CONTINUOUS
 62
     7
 66
     1
 10
0.0
 20
0.0
 30
0.0
 70
     1
 40
0.4000000100000002
 41
0.4000000100000002
  0
VERTEX
  5
A52
  8
0
  6
CONTINUOUS
 62
     7
 10
-0.2
 20
0.0
 30
0.0
 42
1.0
  0
VERTEX
  5
A53
  8
0
  6
CONTINUOUS
 62
     7
 10
0.2
 20
0.0
 30
0.0
 42
1.0
  0
SEQEND
  5
A54
  8
0
  6
CONTINUOUS
 62
     7
  0
ENDBLK
  5
878
  8
0
  0
BLOCK
  8
0
  2
KOZU0016
 70
     0
 10
0.0
 20
0.0
 30
0.0
  3
KOZU0016
  1

  0
POLYLINE
  5
87B
  8
0
  6
CONTINUOUS
 62
     7
 66
     1
 10
0.0
 20
0.0
 30
0.0
 70
     1
 40
0.4000000100000002
 41
0.4000000100000002
  0
VERTEX
  5
A55
  8
0
  6
CONTINUOUS
 62
     7
 10
-0.2
 20
0.0
 30
0.0
 42
1.0
  0
VERTEX
  5
A56
  8
0
  6
CONTINUOUS
 62
     7
 10
0.2
 20
0.0
 30
0.0
 42
1.0
  0
SEQEND
  5
A57
  8
0
  6
CONTINUOUS
 62
     7
  0
ENDBLK
  5
87F
  8
0
  0
BLOCK
  8
0
  2
KOZU0017
 70
     0
 10
0.0
 20
0.0
 30
0.0
  3
KOZU0017
  1

  0
POLYLINE
  5
882
  8
0
  6
CONTINUOUS
 62
     7
 66
     1
 10
0.0
 20
0.0
 30
0.0
 70
     1
 40
0.4000000100000002
 41
0.4000000100000002
  0
VERTEX
  5
A58
  8
0
  6
CONTINUOUS
 62
     7
 10
-0.2
 20
0.0
 30
0.0
 42
1.0
  0
VERTEX
  5
A59
  8
0
  6
CONTINUOUS
 62
     7
 10
0.2
 20
0.0
 30
0.0
 42
1.0
  0
SEQEND
  5
A5A
  8
0
  6
CONTINUOUS
 62
     7
  0
ENDBLK
  5
886
  8
0
  0
BLOCK
  8
0
  2
KOZU0018
 70
     0
 10
0.0
 20
0.0
 30
0.0
  3
KOZU0018
  1

  0
POLYLINE
  5
889
  8
0
  6
CONTINUOUS
 62
     7
 66
     1
 10
0.0
 20
0.0
 30
0.0
 70
     1
 40
0.4000000100000002
 41
0.4000000100000002
  0
VERTEX
  5
A5B
  8
0
  6
CONTINUOUS
 62
     7
 10
-0.2
 20
0.0
 30
0.0
 42
1.0
  0
VERTEX
  5
A5C
  8
0
  6
CONTINUOUS
 62
     7
 10
0.2
 20
0.0
 30
0.0
 42
1.0
  0
SEQEND
  5
A5D
  8
0
  6
CONTINUOUS
 62
     7
  0
ENDBLK
  5
88D
  8
0
  0
BLOCK
  8
0
  2
KOZU0019
 70
     0
 10
0.0
 20
0.0
 30
0.0
  3
KOZU0019
  1

  0
POLYLINE
  5
890
  8
0
  6
CONTINUOUS
 62
     7
 66
     1
 10
0.0
 20
0.0
 30
0.0
 70
     1
 40
0.4000000100000002
 41
0.4000000100000002
  0
VERTEX
  5
A5E
  8
0
  6
CONTINUOUS
 62
     7
 10
-0.2
 20
0.0
 30
0.0
 42
1.0
  0
VERTEX
  5
A5F
  8
0
  6
CONTINUOUS
 62
     7
 10
0.2
 20
0.0
 30
0.0
 42
1.0
  0
SEQEND
  5
A60
  8
0
  6
CONTINUOUS
 62
     7
  0
ENDBLK
  5
894
  8
0
  0
BLOCK
  8
0
  2
KOZU0020
 70
     0
 10
0.0
 20
0.0
 30
0.0
  3
KOZU0020
  1

  0
POLYLINE
  5
897
  8
0
  6
CONTINUOUS
 62
     7
 66
     1
 10
0.0
 20
0.0
 30
0.0
 70
     1
 40
0.4000000100000002
 41
0.4000000100000002
  0
VERTEX
  5
A61
  8
0
  6
CONTINUOUS
 62
     7
 10
-0.2
 20
0.0
 30
0.0
 42
1.0
  0
VERTEX
  5
A62
  8
0
  6
CONTINUOUS
 62
     7
 10
0.2
 20
0.0
 30
0.0
 42
1.0
  0
SEQEND
  5
A63
  8
0
  6
CONTINUOUS
 62
     7
  0
ENDBLK
  5
89B
  8
0
  0
BLOCK
  8
0
  2
KOZU0021
 70
     0
 10
0.0
 20
0.0
 30
0.0
  3
KOZU0021
  1

  0
POLYLINE
  5
89E
  8
0
  6
CONTINUOUS
 62
     7
 66
     1
 10
0.0
 20
0.0
 30
0.0
 70
     1
 40
0.4000000100000002
 41
0.4000000100000002
  0
VERTEX
  5
A64
  8
0
  6
CONTINUOUS
 62
     7
 10
-0.2
 20
0.0
 30
0.0
 42
1.0
  0
VERTEX
  5
A65
  8
0
  6
CONTINUOUS
 62
     7
 10
0.2
 20
0.0
 30
0.0
 42
1.0
  0
SEQEND
  5
A66
  8
0
  6
CONTINUOUS
 62
     7
  0
ENDBLK
  5
8A2
  8
0
  0
BLOCK
  8
0
  2
KOZU0022
 70
     0
 10
0.0
 20
0.0
 30
0.0
  3
KOZU0022
  1

  0
POLYLINE
  5
8A5
  8
0
  6
CONTINUOUS
 62
     7
 66
     1
 10
0.0
 20
0.0
 30
0.0
 70
     1
 40
0.4000000100000002
 41
0.4000000100000002
  0
VERTEX
  5
A67
  8
0
  6
CONTINUOUS
 62
     7
 10
-0.2
 20
0.0
 30
0.0
 42
1.0
  0
VERTEX
  5
A68
  8
0
  6
CONTINUOUS
 62
     7
 10
0.2
 20
0.0
 30
0.0
 42
1.0
  0
SEQEND
  5
A69
  8
0
  6
CONTINUOUS
 62
     7
  0
ENDBLK
  5
8A9
  8
0
  0
BLOCK
  8
0
  2
KOZU0023
 70
     0
 10
0.0
 20
0.0
 30
0.0
  3
KOZU0023
  1

  0
POLYLINE
  5
8AC
  8
0
  6
CONTINUOUS
 62
     7
 66
     1
 10
0.0
 20
0.0
 30
0.0
 70
     1
 40
0.4000000100000002
 41
0.4000000100000002
  0
VERTEX
  5
A6A
  8
0
  6
CONTINUOUS
 62
     7
 10
-0.2
 20
0.0
 30
0.0
 42
1.0
  0
VERTEX
  5
A6B
  8
0
  6
CONTINUOUS
 62
     7
 10
0.2
 20
0.0
 30
0.0
 42
1.0
  0
SEQEND
  5
A6C
  8
0
  6
CONTINUOUS
 62
     7
  0
ENDBLK
  5
8B0
  8
0
  0
BLOCK
  8
0
  2
KOZU0024
 70
     0
 10
0.0
 20
0.0
 30
0.0
  3
KOZU0024
  1

  0
POLYLINE
  5
8B3
  8
0
  6
CONTINUOUS
 62
     7
 66
     1
 10
0.0
 20
0.0
 30
0.0
 70
     1
 40
0.4000000100000002
 41
0.4000000100000002
  0
VERTEX
  5
A6D
  8
0
  6
CONTINUOUS
 62
     7
 10
-0.2
 20
0.0
 30
0.0
 42
1.0
  0
VERTEX
  5
A6E
  8
0
  6
CONTINUOUS
 62
     7
 10
0.2
 20
0.0
 30
0.0
 42
1.0
  0
SEQEND
  5
A6F
  8
0
  6
CONTINUOUS
 62
     7
  0
ENDBLK
  5
8B7
  8
0
  0
BLOCK
  8
0
  2
KOZU0025
 70
     0
 10
0.0
 20
0.0
 30
0.0
  3
KOZU0025
  1

  0
POLYLINE
  5
8BA
  8
0
  6
CONTINUOUS
 62
     7
 66
     1
 10
0.0
 20
0.0
 30
0.0
 70
     1
 40
0.4000000100000002
 41
0.4000000100000002
  0
VERTEX
  5
A70
  8
0
  6
CONTINUOUS
 62
     7
 10
-0.2
 20
0.0
 30
0.0
 42
1.0
  0
VERTEX
  5
A71
  8
0
  6
CONTINUOUS
 62
     7
 10
0.2
 20
0.0
 30
0.0
 42
1.0
  0
SEQEND
  5
A72
  8
0
  6
CONTINUOUS
 62
     7
  0
ENDBLK
  5
8BE
  8
0
  0
BLOCK
  8
0
  2
KOZU0026
 70
     0
 10
0.0
 20
0.0
 30
0.0
  3
KOZU0026
  1

  0
POLYLINE
  5
8C1
  8
0
  6
CONTINUOUS
 62
     7
 66
     1
 10
0.0
 20
0.0
 30
0.0
 70
     1
 40
0.4000000100000002
 41
0.4000000100000002
  0
VERTEX
  5
A73
  8
0
  6
CONTINUOUS
 62
     7
 10
-0.2
 20
0.0
 30
0.0
 42
1.0
  0
VERTEX
  5
A74
  8
0
  6
CONTINUOUS
 62
     7
 10
0.2
 20
0.0
 30
0.0
 42
1.0
  0
SEQEND
  5
A75
  8
0
  6
CONTINUOUS
 62
     7
  0
ENDBLK
  5
8C5
  8
0
  0
BLOCK
  8
0
  2
KOZU0027
 70
     0
 10
0.0
 20
0.0
 30
0.0
  3
KOZU0027
  1

  0
POLYLINE
  5
8C8
  8
0
  6
CONTINUOUS
 62
     7
 66
     1
 10
0.0
 20
0.0
 30
0.0
 70
     1
 40
0.4000000100000002
 41
0.4000000100000002
  0
VERTEX
  5
A76
  8
0
  6
CONTINUOUS
 62
     7
 10
-0.2
 20
0.0
 30
0.0
 42
1.0
  0
VERTEX
  5
A77
  8
0
  6
CONTINUOUS
 62
     7
 10
0.2
 20
0.0
 30
0.0
 42
1.0
  0
SEQEND
  5
A78
  8
0
  6
CONTINUOUS
 62
     7
  0
ENDBLK
  5
8CC
  8
0
  0
BLOCK
  8
0
  2
KOZU0028
 70
     0
 10
0.0
 20
0.0
 30
0.0
  3
KOZU0028
  1

  0
POLYLINE
  5
8CF
  8
0
  6
CONTINUOUS
 62
     7
 66
     1
 10
0.0
 20
0.0
 30
0.0
 70
     1
 40
0.4000000100000002
 41
0.4000000100000002
  0
VERTEX
  5
A79
  8
0
  6
CONTINUOUS
 62
     7
 10
-0.2
 20
0.0
 30
0.0
 42
1.0
  0
VERTEX
  5
A7A
  8
0
  6
CONTINUOUS
 62
     7
 10
0.2
 20
0.0
 30
0.0
 42
1.0
  0
SEQEND
  5
A7B
  8
0
  6
CONTINUOUS
 62
     7
  0
ENDBLK
  5
8D3
  8
0
  0
BLOCK
  8
0
  2
KOZU0029
 70
     0
 10
0.0
 20
0.0
 30
0.0
  3
KOZU0029
  1

  0
POLYLINE
  5
8D6
  8
0
  6
CONTINUOUS
 62
     7
 66
     1
 10
0.0
 20
0.0
 30
0.0
 70
     1
 40
0.4000000100000002
 41
0.4000000100000002
  0
VERTEX
  5
A7C
  8
0
  6
CONTINUOUS
 62
     7
 10
-0.2
 20
0.0
 30
0.0
 42
1.0
  0
VERTEX
  5
A7D
  8
0
  6
CONTINUOUS
 62
     7
 10
0.2
 20
0.0
 30
0.0
 42
1.0
  0
SEQEND
  5
A7E
  8
0
  6
CONTINUOUS
 62
     7
  0
ENDBLK
  5
8DA
  8
0
  0
BLOCK
  8
0
  2
KOZU0030
 70
     0
 10
0.0
 20
0.0
 30
0.0
  3
KOZU0030
  1

  0
POLYLINE
  5
8DD
  8
0
  6
CONTINUOUS
 62
     7
 66
     1
 10
0.0
 20
0.0
 30
0.0
 70
     1
 40
0.4000000100000002
 41
0.4000000100000002
  0
VERTEX
  5
A7F
  8
0
  6
CONTINUOUS
 62
     7
 10
-0.2
 20
0.0
 30
0.0
 42
1.0
  0
VERTEX
  5
A80
  8
0
  6
CONTINUOUS
 62
     7
 10
0.2
 20
0.0
 30
0.0
 42
1.0
  0
SEQEND
  5
A81
  8
0
  6
CONTINUOUS
 62
     7
  0
ENDBLK
  5
8E1
  8
0
  0
ENDSEC
  0
SECTION
  2
ENTITIES
  0
POINT
  5
8E2
  8
0
  6
CONTINUOUS
 62
     3
 10
695.95360999999957
 20
483.84102999999988
 30
0.0
  0
POINT
  5
8E3
  8
0
  6
CONTINUOUS
 62
     3
 10
706.95360999999957
 20
483.84102999999988
 30
0.0
  0
POINT
  5
8E4
  8
0
  6
CONTINUOUS
 62
     3
 10
706.95360999999957
 20
503.84102999999988
 30
0.0
  0
POINT
  5
8E5
  8
0
  6
CONTINUOUS
 62
     3
 10
610.17858999999999
 20
374.27103
 30
0.0
  0
POINT
  5
8E6
  8
0
  6
CONTINUOUS
 62
     3
 10
618.17858999999999
 20
374.27103
 30
0.0
  0
POINT
  5
8E7
  8
0
  6
CONTINUOUS
 62
     3
 10
618.17858999999999
 20
357.84102999999982
 30
0.0
  0
POINT
  5
8E8
  8
0
  6
CONTINUOUS
 62
     3
 10
616.74860000000001
 20
372.84102999999999
 30
0.0
  0
POINT
  5
8E9
  8
0
  6
CONTINUOUS
 62
     3
 10
616.74860000000001
 20
372.84102999999999
 30
0.0
  0
POINT
  5
8EA
  8
0
  6
CONTINUOUS
 62
     3
 10
665.75360000000001
 20
372.84102999999999
 30
0.0
  0
POINT
  5
8EB
  8
0
  6
CONTINUOUS
 62
     3
 10
627.17858999999999
 20
483.84102999999988
 30
0.0
  0
POINT
  5
8EC
  8
0
  6
CONTINUOUS
 62
     3
 10
627.17858999999999
 20
393.84102999999999
 30
0.0
  0
POINT
  5
8ED
  8
0
  6
CONTINUOUS
 62
     3
 10
655.75359999999978
 20
393.84102999999999
 30
0.0
  0
POINT
  5
8EE
  8
0
  6
CONTINUOUS
 62
     3
 10
601.17858999999964
 20
483.84102999999988
 30
0.0
  0
POINT
  5
8EF
  8
0
  6
CONTINUOUS
 62
     3
 10
627.17858999999999
 20
483.84102999999988
 30
0.0
  0
POINT
  5
8F0
  8
0
  6
CONTINUOUS
 62
     3
 10
627.17858999999999
 20
503.84102999999988
 30
0.0
  0
POINT
  5
8F1
  8
0
  6
CONTINUOUS
 62
     3
 10
627.17858999999999
 20
483.84102999999988
 30
0.0
  0
POINT
  5
8F2
  8
0
  6
CONTINUOUS
 62
     3
 10
623.17858999999999
 20
478.34102999999988
 30
0.0
  0
POINT
  5
8F3
  8
0
  6
CONTINUOUS
 62
     3
 10
623.17858999999999
 20
493.84102999999999
 30
0.0
  0
POINT
  5
8F4
  8
0
  6
CONTINUOUS
 62
     3
 10
623.17858999999999
 20
478.34102999999988
 30
0.0
  0
POINT
  5
8F5
  8
0
  6
CONTINUOUS
 62
     3
 10
605.17858999999964
 20
478.34102999999988
 30
0.0
  0
POINT
  5
8F6
  8
0
  6
CONTINUOUS
 62
     3
 10
605.17858999999964
 20
493.84102999999999
 30
0.0
  0
POINT
  5
8F7
  8
0
  6
CONTINUOUS
 62
     3
 10
605.17858999999964
 20
478.34102999999988
 30
0.0
  0
POINT
  5
8F8
  8
0
  6
CONTINUOUS
 62
     3
 10
601.17858999999964
 20
483.84102999999988
 30
0.0
  0
POINT
  5
8F9
  8
0
  6
CONTINUOUS
 62
     3
 10
601.17858999999964
 20
493.84102999999999
 30
0.0
  0
POINT
  5
8FA
  8
0
  6
CONTINUOUS
 62
     3
 10
628.17858999999999
 20
404.34102999999988
 30
0.0
  0
POINT
  5
8FB
  8
0
  6
CONTINUOUS
 62
     3
 10
628.17858999999999
 20
473.34102999999999
 30
0.0
  0
POINT
  5
8FC
  8
0
  6
CONTINUOUS
 62
     3
 10
645.75360000000001
 20
473.34102999999999
 30
0.0
  0
POINT
  5
8FD
  8
0
  6
CONTINUOUS
 62
     3
 10
628.17858999999999
 20
404.34102999999988
 30
0.0
  0
POINT
  5
8FE
  8
0
  6
CONTINUOUS
 62
     3
 10
627.17858999999999
 20
393.84102999999999
 30
0.0
  0
POINT
  5
8FF
  8
0
  6
CONTINUOUS
 62
     3
 10
645.75360000000001
 20
393.84102999999999
 30
0.0
  0
POINT
  5
900
  8
0
  6
CONTINUOUS
 62
     3
 10
627.17858999999999
 20
483.84102999999988
 30
0.0
  0
POINT
  5
901
  8
0
  6
CONTINUOUS
 62
     3
 10
628.17858999999999
 20
473.34102999999999
 30
0.0
  0
POINT
  5
902
  8
0
  6
CONTINUOUS
 62
     3
 10
645.75360000000001
 20
473.34102999999999
 30
0.0
  0
POINT
  5
903
  8
0
  6
CONTINUOUS
 62
     3
 10
705.45360999999968
 20
483.84102999999988
 30
0.0
  0
POINT
  5
904
  8
0
  6
CONTINUOUS
 62
     3
 10
706.95360999999957
 20
483.84102999999988
 30
0.0
  0
POINT
  5
905
  8
0
  6
CONTINUOUS
 62
     3
 10
706.95360999999957
 20
493.84102999999999
 30
0.0
  0
POINT
  5
906
  8
0
  6
CONTINUOUS
 62
     3
 10
624.36273000000006
 20
476.20595999999989
 30
0.0
  0
POINT
  5
907
  8
0
  6
CONTINUOUS
 62
     3
 10
621.99445000000003
 20
470.47609999999992
 30
0.0
  0
POINT
  5
908
  8
0
  6
CONTINUOUS
 62
     7
 10
0.0
 20
0.0
 30
0.0
  0
POINT
  5
909
  8
0
  6
CONTINUOUS
 62
     3
 10
701.45360999999968
 20
488.15753000000001
 30
0.0
  0
POINT
  5
90A
  8
0
  6
CONTINUOUS
 62
     3
 10
695.95360999999957
 20
483.84102999999988
 30
0.0
  0
POINT
  5
90B
  8
0
  6
CONTINUOUS
 62
     3
 10
695.95360999999957
 20
493.84102999999999
 30
0.0
  0
POINT
  5
90C
  8
0
  6
CONTINUOUS
 62
     3
 10
630.75359999999978
 20
444.69479000000001
 30
0.0
  0
POINT
  5
90D
  8
0
  6
CONTINUOUS
 62
     3
 10
614.17858999999999
 20
444.69479000000001
 30
0.0
  0
POINT
  5
90E
  8
0
  6
CONTINUOUS
 62
     3
 10
614.17858999999999
 20
454.73824999999999
 30
0.0
  0
POINT
  5
90F
  8
0
  6
CONTINUOUS
 62
     7
 10
701.45360999999968
 20
440.76229999999998
 30
0.0
  0
LINE
  5
910
  8
0
  6
CONTINUOUS
 62
     3
 10
695.95360999999957
 20
484.84102999999999
 30
0.0
 11
695.95360999999957
 21
504.84102999999988
 31
0.0
  0
LINE
  5
911
  8
0
  6
CONTINUOUS
 62
     3
 10
706.95360999999957
 20
484.84102999999999
 30
0.0
 11
706.95360999999957
 21
504.84102999999988
 31
0.0
  0
LINE
  5
912
  8
0
  6
CONTINUOUS
 62
     3
 10
696.75359999999989
 20
503.84102999999988
 30
0.0
 11
706.15363000000002
 21
503.84102999999988
 31
0.0
  0
LINE
  5
913
  8
0
  6
CONTINUOUS
 62
     7
 10
696.35364000000004
 20
503.84102999999988
 30
0.0
 11
696.75359999999989
 21
503.84102999999988
 31
0.0
  0
LINE
  5
914
  8
0
  6
CONTINUOUS
 62
     7
 10
706.55358999999999
 20
503.84102999999988
 30
0.0
 11
706.15363000000002
 21
503.84102999999988
 31
0.0
  0
LINE
  5
915
  8
0
  6
CONTINUOUS
 62
     3
 10
610.17858999999999
 20
373.27102999999988
 30
0.0
 11
610.17858999999999
 21
356.84102999999999
 31
0.0
  0
LINE
  5
916
  8
0
  6
CONTINUOUS
 62
     3
 10
618.17858999999999
 20
373.27102999999988
 30
0.0
 11
618.17858999999999
 21
356.84102999999999
 31
0.0
  0
LINE
  5
917
  8
0
  6
CONTINUOUS
 62
     3
 10
610.97857999999997
 20
357.84102999999982
 30
0.0
 11
617.37859999999966
 21
357.84102999999982
 31
0.0
  0
LINE
  5
918
  8
0
  6
CONTINUOUS
 62
     7
 10
610.57860999999946
 20
357.84102999999982
 30
0.0
 11
610.97857999999997
 21
357.84102999999982
 31
0.0
  0
LINE
  5
919
  8
0
  6
CONTINUOUS
 62
     7
 10
617.77863000000002
 20
357.84102999999982
 30
0.0
 11
617.37859999999966
 21
357.84102999999982
 31
0.0
  0
LINE
  5
91A
  8
0
  6
CONTINUOUS
 62
     3
 10
617.74860000000001
 20
372.84102999999999
 30
0.0
 11
666.75360000000001
 21
372.84102999999999
 31
0.0
  0
LINE
  5
91B
  8
0
  6
CONTINUOUS
 62
     3
 10
617.74860000000001
 20
372.84102999999999
 30
0.0
 11
666.75360000000001
 21
372.84102999999999
 31
0.0
  0
LINE
  5
91C
  8
0
  6
CONTINUOUS
 62
     3
 10
665.75360000000001
 20
372.04104999999993
 30
0.0
 11
665.75360000000001
 21
371.24102999999991
 31
0.0
  0
LINE
  5
91D
  8
0
  6
CONTINUOUS
 62
     3
 10
665.75360000000001
 20
373.64102000000003
 30
0.0
 11
665.75360000000001
 21
429.13280999999989
 31
0.0
  0
LINE
  5
91E
  8
0
  6
CONTINUOUS
 62
     7
 10
665.75360000000001
 20
372.44103999999999
 30
0.0
 11
665.75360000000001
 21
372.04104999999993
 31
0.0
  0
LINE
  5
91F
  8
0
  6
CONTINUOUS
 62
     7
 10
665.75360000000001
 20
373.24102999999991
 30
0.0
 11
665.75360000000001
 21
373.64102000000003
 31
0.0
  0
LINE
  5
920
  8
0
  6
CONTINUOUS
 62
     3
 10
628.17858999999999
 20
483.84102999999988
 30
0.0
 11
656.75360000000001
 21
483.84102999999988
 31
0.0
  0
LINE
  5
921
  8
0
  6
CONTINUOUS
 62
     3
 10
628.17858999999999
 20
393.84102999999999
 30
0.0
 11
656.75360000000001
 21
393.84102999999999
 31
0.0
  0
LINE
  5
922
  8
0
  6
CONTINUOUS
 62
     3
 10
655.75359999999978
 20
483.04104999999998
 30
0.0
 11
655.75359999999978
 21
394.64102000000003
 31
0.0
  0
LINE
  5
923
  8
0
  6
CONTINUOUS
 62
     7
 10
655.75359999999978
 20
483.44103999999999
 30
0.0
 11
655.75359999999978
 21
483.04104999999998
 31
0.0
  0
LINE
  5
924
  8
0
  6
CONTINUOUS
 62
     7
 10
655.75359999999978
 20
394.24102999999991
 30
0.0
 11
655.75359999999978
 21
394.64102000000003
 31
0.0
  0
LINE
  5
925
  8
0
  6
CONTINUOUS
 62
     3
 10
601.17858999999964
 20
484.84102999999999
 30
0.0
 11
601.17858999999964
 21
504.84102999999988
 31
0.0
  0
LINE
  5
926
  8
0
  6
CONTINUOUS
 62
     3
 10
627.17858999999999
 20
484.84102999999999
 30
0.0
 11
627.17858999999999
 21
504.84102999999988
 31
0.0
  0
LINE
  5
927
  8
0
  6
CONTINUOUS
 62
     3
 10
601.97857999999997
 20
503.84102999999988
 30
0.0
 11
626.37860000000001
 21
503.84102999999988
 31
0.0
  0
LINE
  5
928
  8
0
  6
CONTINUOUS
 62
     7
 10
601.57860999999957
 20
503.84102999999988
 30
0.0
 11
601.97857999999997
 21
503.84102999999988
 31
0.0
  0
LINE
  5
929
  8
0
  6
CONTINUOUS
 62
     7
 10
626.77863000000002
 20
503.84102999999988
 30
0.0
 11
626.37860000000001
 21
503.84102999999988
 31
0.0
  0
LINE
  5
92A
  8
0
  6
CONTINUOUS
 62
     7
 10
622.88860999999963
 20
442.94698999999991
 30
0.0
 11
630.03857000000005
 21
442.94698999999991
 31
0.0
  0
LINE
  5
92B
  8
0
  6
CONTINUOUS
 62
     7
 10
622.88860999999963
 20
442.07312000000002
 30
0.0
 11
630.03857000000005
 21
442.07312000000002
 31
0.0
  0
LINE
  5
92C
  8
0
  6
CONTINUOUS
 62
     7
 10
622.88860999999963
 20
441.19922000000003
 30
0.0
 11
630.03857000000005
 21
441.19922000000003
 31
0.0
  0
LINE
  5
92D
  8
0
  6
CONTINUOUS
 62
     7
 10
622.88860999999963
 20
440.32534999999979
 30
0.0
 11
630.03857000000005
 21
440.32534999999979
 31
0.0
  0
LINE
  5
92E
  8
0
  6
CONTINUOUS
 62
     7
 10
622.88860999999963
 20
439.45145000000002
 30
0.0
 11
630.03857000000005
 21
439.45145000000002
 31
0.0
  0
LINE
  5
92F
  8
0
  6
CONTINUOUS
 62
     7
 10
622.88860999999963
 20
443.82089000000002
 30
0.0
 11
630.03857000000005
 21
443.82089000000002
 31
0.0
  0
LINE
  5
930
  8
0
  6
CONTINUOUS
 62
     7
 10
622.88860999999963
 20
438.57757999999961
 30
0.0
 11
630.03857000000005
 21
438.57757999999961
 31
0.0
  0
LINE
  5
931
  8
0
  6
CONTINUOUS
 62
     7
 10
622.88860999999963
 20
437.70366999999987
 30
0.0
 11
630.03857000000005
 21
437.70366999999987
 31
0.0
  0
LINE
  5
932
  8
0
  6
CONTINUOUS
 62
     7
 10
622.88860999999963
 20
436.82979999999998
 30
0.0
 11
630.03857000000005
 21
436.82979999999998
 31
0.0
  0
LINE
  5
933
  8
0
  6
CONTINUOUS
 62
     7
 10
622.88860999999963
 20
444.69479000000001
 30
0.0
 11
630.03857000000005
 21
444.69479000000001
 31
0.0
  0
LINE
  5
934
  8
0
  6
CENTER
 62
     4
 10
628.17858999999999
 20
404.34102999999988
 30
0.0
 11
618.17858999999999
 21
404.34102999999988
 31
0.0
  0
LINE
  5
935
  8
0
  6
CENTER
 62
     4
 10
628.17858999999999
 20
473.34102999999999
 30
0.0
 11
618.17858999999999
 21
473.34102999999999
 31
0.0
  0
LINE
  5
936
  8
0
  6
CONTINUOUS
 62
     7
 10
601.17858999999964
 20
393.84102999999999
 30
0.0
 11
627.17858999999999
 21
393.84102999999999
 31
0.0
  0
LINE
  5
937
  8
0
  6
CONTINUOUS
 62
     7
 10
601.17858999999964
 20
483.84102999999988
 30
0.0
 11
627.17858999999999
 21
483.84102999999988
 31
0.0
  0
LINE
  5
938
  8
0
  6
CONTINUOUS
 62
     3
 10
627.17858999999999
 20
484.84102999999999
 30
0.0
 11
627.17858999999999
 21
494.84102999999988
 31
0.0
  0
LINE
  5
939
  8
0
  6
CONTINUOUS
 62
     3
 10
623.17858999999999
 20
479.34102999999988
 30
0.0
 11
623.17858999999999
 21
494.84102999999988
 31
0.0
  0
LINE
  5
93A
  8
0
  6
CONTINUOUS
 62
     3
 10
627.97857999999985
 20
493.84102999999999
 30
0.0
 11
628.77863000000002
 21
493.84102999999999
 31
0.0
  0
LINE
  5
93B
  8
0
  6
CONTINUOUS
 62
     3
 10
622.37860000000001
 20
493.84102999999999
 30
0.0
 11
621.5786099999998
 21
493.84102999999999
 31
0.0
  0
LINE
  5
93C
  8
0
  6
CONTINUOUS
 62
     3
 10
627.17858999999999
 20
493.84102999999999
 30
0.0
 11
623.17858999999999
 21
493.84102999999999
 31
0.0
  0
LINE
  5
93D
  8
0
  6
CONTINUOUS
 62
     7
 10
627.57860999999946
 20
493.84102999999999
 30
0.0
 11
627.97857999999985
 21
493.84102999999999
 31
0.0
  0
LINE
  5
93E
  8
0
  6
CONTINUOUS
 62
     7
 10
622.77862999999979
 20
493.84102999999999
 30
0.0
 11
622.37860000000001
 21
493.84102999999999
 31
0.0
  0
LINE
  5
93F
  8
0
  6
CONTINUOUS
 62
     7
 10
619.89862000000016
 20
465.42977999999999
 30
0.0
 11
619.89862000000016
 21
442.90728999999999
 31
0.0
  0
LINE
  5
940
  8
0
  6
CONTINUOUS
 62
     7
 10
608.45862
 20
483.84102999999988
 30
0.0
 11
608.45862
 21
393.84102999999999
 31
0.0
  0
LINE
  5
941
  8
0
  6
CONTINUOUS
 62
     7
 10
601.17858999999964
 20
483.84102999999988
 30
0.0
 11
601.17858999999964
 21
393.84102999999999
 31
0.0
  0
LINE
  5
942
  8
0
  6
CENTER
 62
     4
 10
614.17858999999999
 20
491.5369
 30
0.0
 11
614.17858999999999
 21
370.55761999999987
 31
0.0
  0
LINE
  5
943
  8
0
  6
CONTINUOUS
 62
     7
 10
610.17858999999999
 20
374.27103
 30
0.0
 11
618.17858999999999
 21
374.27103
 31
0.0
  0
LINE
  5
944
  8
0
  6
CONTINUOUS
 62
     7
 10
610.17858999999999
 20
374.27105999999992
 30
0.0
 11
611.60857999999985
 21
372.84106000000003
 31
0.0
  0
LINE
  5
945
  8
0
  6
CONTINUOUS
 62
     7
 10
610.17858999999999
 20
393.84102999999999
 30
0.0
 11
610.17858999999999
 21
374.27103
 31
0.0
  0
LINE
  5
946
  8
0
  6
CENTER
 62
     4
 10
610.17858999999999
 20
404.34102999999988
 30
0.0
 11
600.17858999999976
 21
404.34102999999988
 31
0.0
  0
LINE
  5
947
  8
0
  6
CENTER
 62
     4
 10
605.17858999999964
 20
409.34102999999999
 30
0.0
 11
605.17858999999964
 21
399.34102999999988
 31
0.0
  0
LINE
  5
948
  8
0
  6
CONTINUOUS
 62
     7
 10
618.17864999999995
 20
374.27105999999992
 30
0.0
 11
616.74860000000001
 21
372.84102999999999
 31
0.0
  0
LINE
  5
949
  8
0
  6
CONTINUOUS
 62
     7
 10
611.60857999999985
 20
372.84102999999999
 30
0.0
 11
616.74860000000001
 21
372.84102999999999
 31
0.0
  0
LINE
  5
94A
  8
0
  6
CONTINUOUS
 62
     7
 10
618.17858999999999
 20
393.84102999999999
 30
0.0
 11
618.17858999999999
 21
374.27103
 31
0.0
  0
LINE
  5
94B
  8
0
  6
CENTER
 62
     4
 10
623.17858999999999
 20
409.34102999999999
 30
0.0
 11
623.17858999999999
 21
399.34102999999988
 31
0.0
  0
LINE
  5
94C
  8
0
  6
CONTINUOUS
 62
     7
 10
608.45862
 20
443.44353999999993
 30
0.0
 11
611.67609000000004
 21
443.44353999999993
 31
0.0
  0
LINE
  5
94D
  8
0
  6
CONTINUOUS
 62
     7
 10
608.45862
 20
460.60354999999993
 30
0.0
 11
611.67609000000004
 21
460.60354999999993
 31
0.0
  0
LINE
  5
94E
  8
0
  6
CONTINUOUS
 62
     7
 10
608.45862
 20
438.08101999999991
 30
0.0
 11
619.89862000000016
 21
438.08101999999991
 31
0.0
  0
LINE
  5
94F
  8
0
  6
CONTINUOUS
 62
     7
 10
608.45862
 20
465.96602999999988
 30
0.0
 11
619.89862000000016
 21
465.96602999999988
 31
0.0
  0
LINE
  5
950
  8
0
  6
CONTINUOUS
 62
     3
 10
623.17858999999999
 20
479.34102999999988
 30
0.0
 11
623.17858999999999
 21
494.84102999999988
 31
0.0
  0
LINE
  5
951
  8
0
  6
CONTINUOUS
 62
     3
 10
605.17858999999964
 20
479.34102999999988
 30
0.0
 11
605.17858999999964
 21
494.84102999999988
 31
0.0
  0
LINE
  5
952
  8
0
  6
CONTINUOUS
 62
     3
 10
622.37860000000001
 20
493.84102999999999
 30
0.0
 11
605.97857999999997
 21
493.84102999999999
 31
0.0
  0
LINE
  5
953
  8
0
  6
CONTINUOUS
 62
     7
 10
622.77862999999979
 20
493.84102999999999
 30
0.0
 11
622.37860000000001
 21
493.84102999999999
 31
0.0
  0
LINE
  5
954
  8
0
  6
CONTINUOUS
 62
     7
 10
605.57860999999957
 20
493.84102999999999
 30
0.0
 11
605.97857999999997
 21
493.84102999999999
 31
0.0
  0
LINE
  5
955
  8
0
  6
CONTINUOUS
 62
     7
 10
610.24608999999975
 20
443.44353999999993
 30
0.0
 11
610.24608999999975
 21
438.08101999999991
 31
0.0
  0
LINE
  5
956
  8
0
  6
CONTINUOUS
 62
     7
 10
610.24608999999975
 20
465.96602999999988
 30
0.0
 11
610.24608999999975
 21
460.60354999999993
 31
0.0
  0
LINE
  5
957
  8
0
  6
CENTER
 62
     4
 10
610.17858999999999
 20
473.34102999999999
 30
0.0
 11
600.17858999999976
 21
473.34102999999999
 31
0.0
  0
LINE
  5
958
  8
0
  6
CONTINUOUS
 62
     3
 10
605.17858999999964
 20
479.34102999999988
 30
0.0
 11
605.17858999999964
 21
494.84102999999988
 31
0.0
  0
LINE
  5
959
  8
0
  6
CONTINUOUS
 62
     3
 10
601.17858999999964
 20
484.84102999999999
 30
0.0
 11
601.17858999999964
 21
494.84102999999988
 31
0.0
  0
LINE
  5
95A
  8
0
  6
CONTINUOUS
 62
     3
 10
605.97857999999997
 20
493.84102999999999
 30
0.0
 11
606.77863000000002
 21
493.84102999999999
 31
0.0
  0
LINE
  5
95B
  8
0
  6
CONTINUOUS
 62
     3
 10
600.37859999999978
 20
493.84102999999999
 30
0.0
 11
599.5786099999998
 21
493.84102999999999
 31
0.0
  0
LINE
  5
95C
  8
0
  6
CONTINUOUS
 62
     3
 10
605.17858999999964
 20
493.84102999999999
 30
0.0
 11
601.17858999999964
 21
493.84102999999999
 31
0.0
  0
LINE
  5
95D
  8
0
  6
CONTINUOUS
 62
     7
 10
605.57860999999957
 20
493.84102999999999
 30
0.0
 11
605.97857999999997
 21
493.84102999999999
 31
0.0
  0
LINE
  5
95E
  8
0
  6
CONTINUOUS
 62
     7
 10
600.77863000000002
 20
493.84102999999999
 30
0.0
 11
600.37859999999978
 21
493.84102999999999
 31
0.0
  0
LINE
  5
95F
  8
0
  6
CENTER
 62
     4
 10
605.17858999999964
 20
478.34102999999988
 30
0.0
 11
605.17858999999964
 21
468.34102999999999
 31
0.0
  0
LINE
  5
960
  8
0
  6
CONTINUOUS
 62
     7
 10
619.89862000000016
 20
483.84102999999988
 30
0.0
 11
619.89862000000016
 21
465.42977999999999
 31
0.0
  0
LINE
  5
961
  8
0
  6
CONTINUOUS
 62
     7
 10
619.89862000000016
 20
443.44353999999993
 30
0.0
 11
616.68109000000004
 21
443.44353999999993
 31
0.0
  0
LINE
  5
962
  8
0
  6
CONTINUOUS
 62
     7
 10
619.89862000000016
 20
460.60354999999993
 30
0.0
 11
616.68109000000004
 21
460.60354999999993
 31
0.0
  0
LINE
  5
963
  8
0
  6
CONTINUOUS
 62
     7
 10
616.68109000000004
 20
460.60354999999993
 30
0.0
 11
616.68109000000004
 21
443.44353999999993
 31
0.0
  0
LINE
  5
964
  8
0
  6
CONTINUOUS
 62
     7
 10
611.67609000000004
 20
460.60354999999993
 30
0.0
 11
611.67609000000004
 21
443.44353999999993
 31
0.0
  0
LINE
  5
965
  8
0
  6
CONTINUOUS
 62
     7
 10
622.88860999999963
 20
436.82979999999998
 30
0.0
 11
622.88860999999963
 21
444.69479000000001
 31
0.0
  0
LINE
  5
966
  8
0
  6
CONTINUOUS
 62
     7
 10
622.17358000000002
 20
437.54477000000003
 30
0.0
 11
622.88860999999963
 21
436.82977
 31
0.0
  0
LINE
  5
967
  8
0
  6
CONTINUOUS
 62
     7
 10
622.88860999999963
 20
444.69479000000001
 30
0.0
 11
622.17358000000002
 21
443.97980000000001
 31
0.0
  0
LINE
  5
968
  8
0
  6
CONTINUOUS
 62
     7
 10
622.17358000000002
 20
437.54480000000001
 30
0.0
 11
622.17358000000002
 21
443.97980000000001
 31
0.0
  0
LINE
  5
969
  8
0
  6
CONTINUOUS
 62
     7
 10
618.1110799999999
 20
442.90728999999999
 30
0.0
 11
622.17358000000002
 21
442.90728999999999
 31
0.0
  0
LINE
  5
96A
  8
0
  6
CONTINUOUS
 62
     7
 10
618.1110799999999
 20
438.61730999999992
 30
0.0
 11
622.17358000000002
 21
438.61730999999992
 31
0.0
  0
LINE
  5
96B
  8
0
  6
CONTINUOUS
 62
     7
 10
618.1110799999999
 20
443.44353999999993
 30
0.0
 11
618.1110799999999
 21
438.08101999999991
 31
0.0
  0
LINE
  5
96C
  8
0
  6
CONTINUOUS
 62
     7
 10
618.1110799999999
 20
465.96602999999988
 30
0.0
 11
618.1110799999999
 21
460.60354999999993
 31
0.0
  0
LINE
  5
96D
  8
0
  6
CENTER
 62
     4
 10
623.17858999999999
 20
478.34102999999988
 30
0.0
 11
623.17858999999999
 21
468.34102999999999
 31
0.0
  0
LINE
  5
96E
  8
0
  6
CONTINUOUS
 62
     7
 10
627.17858999999999
 20
467.21728999999988
 30
0.0
 11
627.17858999999999
 21
444.69479000000001
 31
0.0
  0
LINE
  5
96F
  8
0
  6
CONTINUOUS
 62
     3
 10
629.17858999999976
 20
404.34102999999988
 30
0.0
 11
646.75359999999989
 21
404.34102999999988
 31
0.0
  0
LINE
  5
970
  8
0
  6
CONTINUOUS
 62
     3
 10
629.17858999999976
 20
473.34102999999999
 30
0.0
 11
646.75359999999989
 21
473.34102999999999
 31
0.0
  0
LINE
  5
971
  8
0
  6
CONTINUOUS
 62
     3
 10
645.75360000000001
 20
405.14102000000003
 30
0.0
 11
645.75360000000001
 21
472.54104999999993
 31
0.0
  0
LINE
  5
972
  8
0
  6
CONTINUOUS
 62
     7
 10
645.75360000000001
 20
404.74103000000002
 30
0.0
 11
645.75360000000001
 21
405.14102000000003
 31
0.0
  0
LINE
  5
973
  8
0
  6
CONTINUOUS
 62
     7
 10
645.75360000000001
 20
472.94103999999987
 30
0.0
 11
645.75360000000001
 21
472.54104999999993
 31
0.0
  0
LINE
  5
974
  8
0
  6
CONTINUOUS
 62
     3
 10
629.17858999999976
 20
404.34102999999988
 30
0.0
 11
646.75359999999989
 21
404.34102999999988
 31
0.0
  0
LINE
  5
975
  8
0
  6
CONTINUOUS
 62
     3
 10
628.17858999999999
 20
393.84102999999999
 30
0.0
 11
646.75359999999989
 21
393.84102999999999
 31
0.0
  0
LINE
  5
976
  8
0
  6
CONTINUOUS
 62
     3
 10
645.75360000000001
 20
403.54104999999998
 30
0.0
 11
645.75360000000001
 21
394.64102000000003
 31
0.0
  0
LINE
  5
977
  8
0
  6
CONTINUOUS
 62
     3
 10
645.75360000000001
 20
393.84102999999999
 30
0.0
 11
645.75360000000001
 21
382.25057999999962
 31
0.0
  0
LINE
  5
978
  8
0
  6
CONTINUOUS
 62
     7
 10
645.75360000000001
 20
403.94103999999987
 30
0.0
 11
645.75360000000001
 21
403.54104999999998
 31
0.0
  0
LINE
  5
979
  8
0
  6
CONTINUOUS
 62
     7
 10
645.75360000000001
 20
394.24102999999991
 30
0.0
 11
645.75360000000001
 21
394.64102000000003
 31
0.0
  0
LINE
  5
97A
  8
0
  6
CONTINUOUS
 62
     3
 10
628.17858999999999
 20
483.84102999999988
 30
0.0
 11
646.75359999999989
 21
483.84102999999988
 31
0.0
  0
LINE
  5
97B
  8
0
  6
CONTINUOUS
 62
     3
 10
629.17858999999976
 20
473.34102999999999
 30
0.0
 11
646.75359999999989
 21
473.34102999999999
 31
0.0
  0
LINE
  5
97C
  8
0
  6
CONTINUOUS
 62
     3
 10
645.75360000000001
 20
474.14102000000003
 30
0.0
 11
645.75360000000001
 21
483.04104999999998
 31
0.0
  0
LINE
  5
97D
  8
0
  6
CONTINUOUS
 62
     3
 10
645.75360000000001
 20
483.84102999999988
 30
0.0
 11
645.75360000000001
 21
494.94137999999998
 31
0.0
  0
LINE
  5
97E
  8
0
  6
CONTINUOUS
 62
     7
 10
645.75360000000001
 20
473.74102999999991
 30
0.0
 11
645.75360000000001
 21
474.14102000000003
 31
0.0
  0
LINE
  5
97F
  8
0
  6
CONTINUOUS
 62
     7
 10
645.75360000000001
 20
483.44103999999999
 30
0.0
 11
645.75360000000001
 21
483.04104999999998
 31
0.0
  0
LINE
  5
980
  8
0
  6
CONTINUOUS
 62
     7
 10
627.17858999999999
 20
483.84102999999988
 30
0.0
 11
627.17858999999999
 21
467.21728999999988
 31
0.0
  0
LINE
  5
981
  8
0
  6
CONTINUOUS
 62
     7
 10
630.03857000000005
 20
436.82979999999998
 30
0.0
 11
630.03857000000005
 21
444.69479000000001
 31
0.0
  0
LINE
  5
982
  8
0
  6
CONTINUOUS
 62
     7
 10
630.75359999999978
 20
437.54477000000003
 30
0.0
 11
630.03863999999976
 21
436.82979999999998
 31
0.0
  0
LINE
  5
983
  8
0
  6
CONTINUOUS
 62
     7
 10
630.03863999999976
 20
444.69481999999999
 30
0.0
 11
630.75359999999978
 21
443.97980000000001
 31
0.0
  0
LINE
  5
984
  8
0
  6
CONTINUOUS
 62
     7
 10
630.75359999999978
 20
437.54480000000001
 30
0.0
 11
630.75359999999978
 21
443.97980000000001
 31
0.0
  0
LINE
  5
985
  8
0
  6
CONTINUOUS
 62
     7
 10
695.95360999999957
 20
438.08101999999991
 30
0.0
 11
695.95360999999957
 21
393.84102999999999
 31
0.0
  0
LINE
  5
986
  8
0
  6
CONTINUOUS
 62
     7
 10
705.45360999999968
 20
483.84102999999988
 30
0.0
 11
705.45360999999968
 21
393.84102999999999
 31
0.0
  0
LINE
  5
987
  8
0
  6
DASHED
 62
     6
 10
697.45360999999968
 20
483.84102999999988
 30
0.0
 11
697.45360999999968
 21
443.44353999999993
 31
0.0
  0
LINE
  5
988
  8
0
  6
CONTINUOUS
 62
     7
 10
706.95360999999957
 20
483.84102999999988
 30
0.0
 11
706.95360999999957
 21
393.84102999999999
 31
0.0
  0
LINE
  5
989
  8
0
  6
CENTER
 62
     4
 10
701.45360999999968
 20
488.15753000000001
 30
0.0
 11
701.45360999999968
 21
370.47775000000001
 31
0.0
  0
LINE
  5
98A
  8
0
  6
CONTINUOUS
 62
     7
 10
695.95360999999957
 20
393.84102999999999
 30
0.0
 11
706.95360999999957
 21
393.84102999999999
 31
0.0
  0
LINE
  5
98B
  8
0
  6
CONTINUOUS
 62
     7
 10
697.45360999999968
 20
374.27103
 30
0.0
 11
705.45360999999968
 21
374.27103
 31
0.0
  0
LINE
  5
98C
  8
0
  6
CONTINUOUS
 62
     7
 10
698.88360999999998
 20
372.84102999999999
 30
0.0
 11
704.02362000000005
 21
372.84102999999999
 31
0.0
  0
LINE
  5
98D
  8
0
  6
CONTINUOUS
 62
     7
 10
697.45360999999968
 20
374.27105999999992
 30
0.0
 11
698.88360999999998
 21
372.84106000000003
 31
0.0
  0
LINE
  5
98E
  8
0
  6
CONTINUOUS
 62
     7
 10
697.45360999999968
 20
393.84102999999999
 30
0.0
 11
697.45360999999968
 21
374.27103
 31
0.0
  0
LINE
  5
98F
  8
0
  6
CONTINUOUS
 62
     7
 10
705.45360999999968
 20
374.27103
 30
0.0
 11
704.02362000000005
 21
372.84106000000003
 31
0.0
  0
LINE
  5
990
  8
0
  6
CONTINUOUS
 62
     7
 10
705.45360999999968
 20
393.84102999999999
 30
0.0
 11
705.45360999999968
 21
374.27103
 31
0.0
  0
LINE
  5
991
  8
0
  6
CONTINUOUS
 62
     7
 10
695.95360999999957
 20
483.84102999999988
 30
0.0
 11
695.95360999999957
 21
465.96602999999988
 31
0.0
  0
LINE
  5
992
  8
0
  6
CONTINUOUS
 62
     7
 10
695.95360999999957
 20
443.44353999999993
 30
0.0
 11
698.57689837491034
 21
443.44353999999993
 31
0.0
  0
LINE
  5
993
  8
0
  6
CONTINUOUS
 62
     7
 10
695.95360999999957
 20
438.08101999999991
 30
0.0
 11
698.57693565744296
 21
438.08101999999991
 31
0.0
  0
LINE
  5
994
  8
0
  6
CONTINUOUS
 62
     7
 10
697.45360999999968
 20
460.60354999999993
 30
0.0
 11
697.45360999999968
 21
465.96602999999988
 31
0.0
  0
LINE
  5
995
  8
0
  6
CONTINUOUS
 62
     7
 10
697.45360999999968
 20
443.44353999999993
 30
0.0
 11
697.45360999999968
 21
438.08101999999991
 31
0.0
  0
LINE
  5
996
  8
0
  6
CONTINUOUS
 62
     7
 10
695.95360999999957
 20
460.60354999999993
 30
0.0
 11
695.95360999999957
 21
443.44353999999993
 31
0.0
  0
LINE
  5
997
  8
0
  6
CONTINUOUS
 62
     7
 10
695.95360999999957
 20
465.96602999999988
 30
0.0
 11
705.45360999999968
 21
465.96602999999988
 31
0.0
  0
LINE
  5
998
  8
0
  6
CONTINUOUS
 62
     7
 10
695.95360999999957
 20
460.60354999999993
 30
0.0
 11
705.45360999999968
 21
460.60354999999993
 31
0.0
  0
LINE
  5
999
  8
0
  6
CONTINUOUS
 62
     7
 10
695.95360999999957
 20
483.84102999999988
 30
0.0
 11
706.95360999999957
 21
483.84102999999988
 31
0.0
  0
LINE
  5
99A
  8
0
  6
CONTINUOUS
 62
     3
 10
705.45360999999968
 20
484.84102999999999
 30
0.0
 11
705.45360999999968
 21
494.84102999999988
 31
0.0
  0
LINE
  5
99B
  8
0
  6
CONTINUOUS
 62
     3
 10
706.95360999999957
 20
484.84102999999999
 30
0.0
 11
706.95360999999957
 21
494.84102999999988
 31
0.0
  0
LINE
  5
99C
  8
0
  6
CONTINUOUS
 62
     3
 10
704.65363000000002
 20
493.84102999999999
 30
0.0
 11
703.85357999999997
 21
493.84102999999999
 31
0.0
  0
LINE
  5
99D
  8
0
  6
CONTINUOUS
 62
     3
 10
707.75360000000001
 20
493.84102999999999
 30
0.0
 11
715.39362000000017
 21
493.84102999999999
 31
0.0
  0
LINE
  5
99E
  8
0
  6
CONTINUOUS
 62
     3
 10
705.45360999999968
 20
493.84102999999999
 30
0.0
 11
706.95360999999957
 21
493.84102999999999
 31
0.0
  0
LINE
  5
99F
  8
0
  6
CONTINUOUS
 62
     7
 10
705.05358999999964
 20
493.84102999999999
 30
0.0
 11
704.65363000000002
 21
493.84102999999999
 31
0.0
  0
LINE
  5
9A0
  8
0
  6
CONTINUOUS
 62
     7
 10
707.35364000000004
 20
493.84102999999999
 30
0.0
 11
707.75360000000001
 21
493.84102999999999
 31
0.0
  0
LINE
  5
9A1
  8
0
  6
CONTINUOUS
 62
     3
 10
622.30005000000017
 20
471.21541999999988
 30
0.0
 11
624.05718999999988
 21
475.46663999999993
 31
0.0
  0
LINE
  5
9A2
  8
0
  6
CONTINUOUS
 62
     3
 10
624.36273000000006
 20
476.20595999999989
 30
0.0
 11
635.78497000000004
 21
503.8410599999998
 31
0.0
  0
LINE
  5
9A3
  8
0
  6
CONTINUOUS
 62
     3
 10
635.78497000000004
 20
503.84102999999988
 30
0.0
 11
669.76494999999977
 21
503.84102999999988
 31
0.0
  0
LINE
  5
9A4
  8
0
  6
CONTINUOUS
 62
     7
 10
622.14728000000002
 20
470.84578999999991
 30
0.0
 11
622.30005000000017
 21
471.21541999999988
 31
0.0
  0
LINE
  5
9A5
  8
0
  6
CONTINUOUS
 62
     7
 10
624.20995999999946
 20
475.83627000000001
 30
0.0
 11
624.05718999999988
 21
475.46663999999993
 31
0.0
  0
LINE
  5
9A6
  8
0
  6
CONTINUOUS
 62
     7
 10
405.15163999999987
 20
268.03676999999999
 30
0.0
 11
825.15166999999985
 21
268.03676999999999
 31
0.0
  0
LINE
  5
9A7
  8
0
  6
CONTINUOUS
 62
     7
 10
405.15163999999987
 20
565.03679999999963
 30
0.0
 11
405.15163999999987
 21
268.03676999999999
 31
0.0
  0
LINE
  5
9A8
  8
0
  6
CONTINUOUS
 62
     7
 10
805.65166999999985
 20
280.03676999999982
 30
0.0
 11
805.65166999999985
 21
553.03679999999997
 31
0.0
  0
LINE
  5
9A9
  8
0
  6
CONTINUOUS
 62
     7
 10
424.65163999999987
 20
457.03676999999999
 30
0.0
 11
424.65163999999987
 21
280.78676999999999
 31
0.0
  0
LINE
  5
9AA
  8
0
  6
CONTINUOUS
 62
     7
 10
805.65166999999985
 20
553.03679999999997
 30
0.0
 11
534.65166999999985
 21
553.03679999999997
 31
0.0
  0
LINE
  5
9AB
  8
0
  6
CONTINUOUS
 62
     7
 10
424.65163999999987
 20
280.03676999999982
 30
0.0
 11
805.65166999999985
 21
280.03676999999982
 31
0.0
  0
LINE
  5
9AC
  8
0
  6
CONTINUOUS
 62
     7
 10
825.15166999999985
 20
565.03679999999963
 30
0.0
 11
825.15166999999985
 21
268.03676999999999
 31
0.0
  0
LINE
  5
9AD
  8
0
  6
CONTINUOUS
 62
     7
 10
405.15163999999987
 20
565.03679999999963
 30
0.0
 11
825.15166999999985
 21
565.03679999999963
 31
0.0
  0
LINE
  5
9AE
  8
0
  6
CONTINUOUS
 62
     7
 10
424.65163999999987
 20
553.03679999999997
 30
0.0
 11
534.65166999999985
 21
553.03679999999997
 31
0.0
  0
LINE
  5
9AF
  8
0
  6
CONTINUOUS
 62
     7
 10
424.65163999999987
 20
553.03679999999997
 30
0.0
 11
424.65163999999987
 21
457.03676999999999
 31
0.0
  0
LINE
  5
9B0
  8
0
  6
CONTINUOUS
 62
     7
 10
444.65163999999999
 20
553.03679999999997
 30
0.0
 11
444.65163999999999
 21
457.03676999999999
 31
0.0
  0
LINE
  5
9B1
  8
0
  6
CONTINUOUS
 62
     7
 10
424.65163999999987
 20
545.03679999999997
 30
0.0
 11
534.65166999999985
 21
545.03679999999997
 31
0.0
  0
LINE
  5
9B2
  8
0
  6
CONTINUOUS
 62
     7
 10
424.65163999999987
 20
537.03679999999997
 30
0.0
 11
534.65166999999985
 21
537.03679999999997
 31
0.0
  0
LINE
  5
9B3
  8
0
  6
CONTINUOUS
 62
     7
 10
424.65163999999987
 20
529.03679999999986
 30
0.0
 11
534.65166999999985
 21
529.03679999999986
 31
0.0
  0
LINE
  5
9B4
  8
0
  6
CONTINUOUS
 62
     7
 10
424.65163999999987
 20
521.03679999999986
 30
0.0
 11
534.65166999999985
 21
521.03679999999986
 31
0.0
  0
LINE
  5
9B5
  8
0
  6
CONTINUOUS
 62
     7
 10
444.65163999999999
 20
497.03676999999988
 30
0.0
 11
534.65166999999985
 21
497.03676999999988
 31
0.0
  0
LINE
  5
9B6
  8
0
  6
CONTINUOUS
 62
     7
 10
444.65163999999999
 20
489.03676999999988
 30
0.0
 11
534.65166999999985
 21
489.03676999999988
 31
0.0
  0
LINE
  5
9B7
  8
0
  6
CONTINUOUS
 62
     7
 10
424.65163999999987
 20
481.03676999999988
 30
0.0
 11
534.65166999999985
 21
481.03676999999988
 31
0.0
  0
LINE
  5
9B8
  8
0
  6
CONTINUOUS
 62
     7
 10
444.65163999999999
 20
473.03676999999999
 30
0.0
 11
534.65166999999985
 21
473.03676999999999
 31
0.0
  0
LINE
  5
9B9
  8
0
  6
CONTINUOUS
 62
     7
 10
444.65163999999999
 20
465.03676999999999
 30
0.0
 11
534.65166999999985
 21
465.03676999999999
 31
0.0
  0
LINE
  5
9BA
  8
0
  6
CONTINUOUS
 62
     7
 10
424.65163999999987
 20
457.03676999999999
 30
0.0
 11
534.65166999999985
 21
457.03676999999999
 31
0.0
  0
LINE
  5
9BB
  8
0
  6
CONTINUOUS
 62
     7
 10
424.65163999999987
 20
553.03679999999997
 30
0.0
 11
424.65163999999987
 21
457.03676999999999
 31
0.0
  0
LINE
  5
9BC
  8
0
  6
CONTINUOUS
 62
     7
 10
424.65163999999987
 20
553.03679999999997
 30
0.0
 11
534.65166999999985
 21
553.03679999999997
 31
0.0
  0
LINE
  5
9BD
  8
0
  6
CONTINUOUS
 62
     7
 10
534.65166999999985
 20
553.03679999999997
 30
0.0
 11
534.65166999999985
 21
457.03676999999999
 31
0.0
  0
LINE
  5
9BE
  8
0
  6
CONTINUOUS
 62
     7
 10
424.65163999999987
 20
513.03679999999986
 30
0.0
 11
534.65166999999985
 21
513.03679999999986
 31
0.0
  0
LINE
  5
9BF
  8
0
  6
CONTINUOUS
 62
     7
 10
424.65163999999987
 20
505.03676999999988
 30
0.0
 11
534.65166999999985
 21
505.03676999999988
 31
0.0
  0
LINE
  5
9C0
  8
0
  6
CONTINUOUS
 62
     7
 10
444.65163999999999
 20
497.03676999999988
 30
0.0
 11
534.65166999999985
 21
497.03676999999988
 31
0.0
  0
LINE
  5
9C1
  8
0
  6
CONTINUOUS
 62
     7
 10
665.75402999999994
 20
429.13207999999997
 30
0.0
 11
664.97760000000005
 21
426.23427999999979
 31
0.0
  0
LINE
  5
9C2
  8
0
  6
CONTINUOUS
 62
     7
 10
665.75409000000002
 20
429.13204999999999
 30
0.0
 11
666.53052000000002
 21
426.23427999999979
 31
0.0
  0
LINE
  5
9C3
  8
0
  6
CONTINUOUS
 62
     3
 10
701.45360999999968
 20
489.15753000000001
 30
0.0
 11
701.45360999999968
 21
494.84102999999988
 31
0.0
  0
LINE
  5
9C4
  8
0
  6
CONTINUOUS
 62
     3
 10
695.95360999999957
 20
484.84102999999999
 30
0.0
 11
695.95360999999957
 21
494.84102999999988
 31
0.0
  0
LINE
  5
9C5
  8
0
  6
CONTINUOUS
 62
     3
 10
700.65363000000002
 20
493.84102999999999
 30
0.0
 11
696.75359999999989
 21
493.84102999999999
 31
0.0
  0
LINE
  5
9C6
  8
0
  6
CONTINUOUS
 62
     3
 10
695.95360999999957
 20
493.84102999999999
 30
0.0
 11
687.54107999999997
 21
493.84102999999999
 31
0.0
  0
LINE
  5
9C7
  8
0
  6
CONTINUOUS
 62
     7
 10
701.05358999999964
 20
493.84102999999999
 30
0.0
 11
700.65363000000002
 21
493.84102999999999
 31
0.0
  0
LINE
  5
9C8
  8
0
  6
CONTINUOUS
 62
     7
 10
696.35364000000004
 20
493.84102999999999
 30
0.0
 11
696.75359999999989
 21
493.84102999999999
 31
0.0
  0
LINE
  5
9C9
  8
0
  6
CONTINUOUS
 62
     3
 10
630.75359999999978
 20
445.69479000000001
 30
0.0
 11
630.75359999999978
 21
455.73824999999999
 31
0.0
  0
LINE
  5
9CA
  8
0
  6
CONTINUOUS
 62
     3
 10
614.17858999999999
 20
445.69479000000001
 30
0.0
 11
614.17858999999999
 21
455.73824999999999
 31
0.0
  0
LINE
  5
9CB
  8
0
  6
CONTINUOUS
 62
     3
 10
614.97857999999997
 20
454.73824999999999
 30
0.0
 11
629.9536099999998
 21
454.73824999999999
 31
0.0
  0
LINE
  5
9CC
  8
0
  6
CONTINUOUS
 62
     3
 10
630.75359999999978
 20
454.73824999999999
 30
0.0
 11
637.43358999999998
 21
454.73824999999999
 31
0.0
  0
LINE
  5
9CD
  8
0
  6
CONTINUOUS
 62
     7
 10
614.57860999999957
 20
454.73824999999999
 30
0.0
 11
614.97857999999997
 21
454.73824999999999
 31
0.0
  0
LINE
  5
9CE
  8
0
  6
CONTINUOUS
 62
     7
 10
630.35357999999985
 20
454.73824999999999
 30
0.0
 11
629.9536099999998
 21
454.73824999999999
 31
0.0
  0
LINE
  5
9CF
  8
0
  6
CONTINUOUS
 62
     7
 10
619.89862000000016
 20
438.61730999999992
 30
0.0
 11
619.89862000000016
 21
393.84102999999999
 31
0.0
  0
LINE
  5
9D0
  8
0
  6
CONTINUOUS
 62
     7
 10
627.17858999999999
 20
436.82979999999998
 30
0.0
 11
627.17858999999999
 21
393.84102999999999
 31
0.0
  0
LINE
  5
9D1
  8
0
  6
DASHED
 62
     6
 10
697.45360999999968
 20
438.08101999999991
 30
0.0
 11
697.45360999999968
 21
393.84102999999999
 31
0.0
  0
CIRCLE
  5
9D2
  8
0
  6
CONTINUOUS
 62
     7
 10
623.17858999999999
 20
404.34102999999988
 30
0.0
 40
3.099999899999998
  0
CIRCLE
  5
9D3
  8
0
  6
CONTINUOUS
 62
     7
 10
623.17858999999999
 20
404.34102999999988
 30
0.0
 40
1.6000000000000001
  0
CIRCLE
  5
9D4
  8
0
  6
CONTINUOUS
 62
     7
 10
623.17858999999999
 20
473.34102999999999
 30
0.0
 40
3.099999899999998
  0
CIRCLE
  5
9D5
  8
0
  6
CONTINUOUS
 62
     7
 10
623.17858999999999
 20
473.34102999999999
 30
0.0
 40
1.6000000000000001
  0
CIRCLE
  5
9D6
  8
0
  6
CONTINUOUS
 62
     7
 10
605.17858999999964
 20
404.34102999999988
 30
0.0
 40
3.099999899999998
  0
CIRCLE
  5
9D7
  8
0
  6
CONTINUOUS
 62
     7
 10
605.17858999999964
 20
404.34102999999988
 30
0.0
 40
1.6000000000000001
  0
CIRCLE
  5
9D8
  8
0
  6
CONTINUOUS
 62
     7
 10
605.17858999999964
 20
473.34102999999999
 30
0.0
 40
3.099999899999998
  0
CIRCLE
  5
9D9
  8
0
  6
CONTINUOUS
 62
     7
 10
605.17858999999964
 20
473.34102999999999
 30
0.0
 40
1.6000000000000001
  0
CIRCLE
  5
9DA
  8
0
  6
CONTINUOUS
 62
     7
 10
701.45360999999968
 20
440.76229999999998
 30
0.0
 40
3.9324951000000001
  0
CIRCLE
  5
9DB
  8
0
  6
CONTINUOUS
 62
     7
 10
701.45360999999968
 20
440.76229999999998
 30
0.0
 40
3.217519299999998
  0
TEXT
  5
9DC
  8
0
  6
CONTINUOUS
 62
     3
 10
698.78695000000016
 20
505.34104000000002
 30
0.0
 40
3.2000000000000002
  1
11
 41
1.5
  0
TEXT
  5
9DD
  8
0
  6
CONTINUOUS
 62
     3
 10
611.20792000000006
 20
359.34103999999991
 30
0.0
 40
3.2000000000000002
  1
%%C８
 41
0.9361344700000001
  0
TEXT
  5
9DE
  8
0
  6
CONTINUOUS
 62
     3
 10
664.25325999999995
 20
402.47025000000002
 30
0.0
 40
3.2000000000000002
  1
ストローク２１
 50
90.000003000000007
 41
0.95923584
  0
TEXT
  5
9DF
  8
0
  6
CONTINUOUS
 62
     3
 10
654.25362999999982
 20
436.17436999999978
 30
0.0
 40
3.2000000000000002
  1
90
 50
90.000003000000007
 41
1.0714285999999991
  0
TEXT
  5
9E0
  8
0
  6
CONTINUOUS
 62
     3
 10
611.51192000000003
 20
505.34134999999992
 30
0.0
 40
3.2000000000000002
  1
26
  0
TEXT
  5
9E1
  8
0
  6
CONTINUOUS
 62
     3
 10
624.11192000000005
 20
495.34104000000002
 30
0.0
 40
3.2000000000000002
  1
4
  0
TEXT
  5
9E2
  8
0
  6
CONTINUOUS
 62
     3
 10
611.51192000000003
 20
495.34104000000002
 30
0.0
 40
3.2000000000000002
  1
18
 41
1.25
  0
TEXT
  5
9E3
  8
0
  6
CONTINUOUS
 62
     3
 10
602.11192000000017
 20
495.34104000000002
 30
0.0
 40
3.2000000000000002
  1
4
  0
TEXT
  5
9E4
  8
0
  6
CONTINUOUS
 62
     3
 10
644.25362999999982
 20
436.17436999999978
 30
0.0
 40
3.2000000000000002
  1
69
 50
90.000003000000007
  0
TEXT
  5
9E5
  8
0
  6
CONTINUOUS
 62
     3
 10
644.25362999999982
 20
380.99018000000001
 30
0.0
 40
3.2000000000000002
  1
10.5
 50
90.000003000000007
 41
1.4666667
  0
TEXT
  5
9E6
  8
0
  6
CONTINUOUS
 62
     3
 10
644.25362999999982
 20
484.46845000000002
 30
0.0
 40
3.2000000000000002
  1
10.5
 50
90.000003000000007
 41
1.4666667
  0
TEXT
  5
9E7
  8
0
  6
CONTINUOUS
 62
     3
 10
707.70696999999996
 20
495.34104000000002
 30
0.0
 40
3.2000000000000002
  1
1.8
 41
1.6000000000000001
  0
TEXT
  5
9E8
  8
0
  6
CONTINUOUS
 62
     3
 10
631.83963000000006
 20
505.34134999999992
 30
0.0
 40
3.2000000000000002
  1
４－%%C３．２×%%C６．２サラ
 41
0.8991596299999999
  0
TEXT
  5
9E9
  8
0
  6
CONTINUOUS
 62
     2
 10
405.15165999999999
 20
268.03676999999999
 30
0.0
 40
2.5
  1
!GENTITLE-LL
 41
1.09375
  0
TEXT
  5
9EA
  8
0
  6
CONTINUOUS
 62
     2
 10
805.65162999999984
 20
553.03679999999997
 30
0.0
 40
2.5
  1
!GENTITLE-RU
 41
1.09375
  0
TEXT
  5
9EB
  8
0
  6
CONTINUOUS
 62
     2
 10
424.65163999999987
 20
553.03679999999997
 30
0.0
 40
2.5
  1
!GENTITLE-INSERT
 41
1.0930233
  0
TEXT
  5
9EC
  8
0
  6
CONTINUOUS
 62
     2
 10
825.15166999999985
 20
565.03679999999963
 30
0.0
 40
2.5
  1
!GENTITLE-MAX
 41
1.0857143
  0
TEXT
  5
9ED
  8
0
  6
CONTINUOUS
 62
     7
 10
430.88015999999988
 20
549.03675999999984
 30
0.0
 40
3.2000000000000002
  1
品　名
 41
0.60999997
  0
TEXT
  5
9EE
  8
0
  6
CONTINUOUS
 62
     7
 10
430.88015999999988
 20
541.03675999999984
 30
0.0
 40
3.2000000000000002
  1
品　番
 41
0.60999997
  0
TEXT
  5
9EF
  8
0
  6
CONTINUOUS
 62
     7
 10
430.88015999999988
 20
533.03675999999984
 30
0.0
 40
3.2000000000000002
  1
材　質
 41
0.60999997
  0
TEXT
  5
9F0
  8
0
  6
CONTINUOUS
 62
     7
 10
430.88015999999988
 20
525.03675999999984
 30
0.0
 40
3.2000000000000002
  1
仕上げ
 41
0.60999997
  0
TEXT
  5
9F1
  8
0
  6
CONTINUOUS
 62
     7
 10
427.68013999999999
 20
501.03679
 30
0.0
 40
3.2000000000000002
  1
セットビス
 41
0.6099999900000001
  0
TEXT
  5
9F2
  8
0
  6
CONTINUOUS
 62
     7
 10
432.48014000000012
 20
477.03679
 30
0.0
 40
3.2000000000000002
  1
備考
 41
0.61
  0
TEXT
  5
9F3
  8
0
  6
CONTINUOUS
 62
     7
 10
430.88015999999988
 20
517.03675999999984
 30
0.0
 40
3.2000000000000002
  1
定　尺
 41
0.60999997
  0
TEXT
  5
9F4
  8
0
  6
CONTINUOUS
 62
     7
 10
429.28014000000002
 20
509.03679
 30
0.0
 40
3.2000000000000002
  1
左右勝手
 41
0.60999998
  0
TEXT
  5
9F5
  8
0
  6
CONTINUOUS
 62
     7
 10
448.08015999999992
 20
547.43678
 30
0.0
 40
3.2000000000000002
  1
アルミ落し
 41
0.74999999
  0
TEXT
  5
9F6
  8
0
  6
CONTINUOUS
 62
     7
 10
448.0801399999998
 20
539.43678
 30
0.0
 40
3.2000000000000002
  1
ＤＬ－１５０
 41
0.75
  0
TEXT
  5
9F7
  8
0
  6
CONTINUOUS
 62
     7
 10
448.08015999999992
 20
531.43678
 30
0.0
 40
3.2000000000000002
  1
アルミ
 41
0.7499999600000004
  0
TEXT
  5
9F8
  8
0
  6
CONTINUOUS
 62
     7
 10
448.08015999999992
 20
523.43678
 30
0.0
 40
3.2000000000000002
  1
アルマイト
 41
0.74999999
  0
TEXT
  5
9F9
  8
0
  6
CONTINUOUS
 62
     7
 10
448.0801399999998
 20
507.43678
 30
0.0
 40
3.2000000000000002
  1
無し
 41
0.74999999
  0
TEXT
  5
9FA
  8
0
  6
CONTINUOUS
 62
     3
 10
687.08068000000003
 20
495.34104000000002
 30
0.0
 40
3.2000000000000002
  1
5.5
 41
1.3333333000000001
  0
TEXT
  5
9FB
  8
0
  6
CONTINUOUS
 62
     3
 10
631.82691999999975
 20
456.23825999999991
 30
0.0
 40
3.2000000000000002
  1
17
 41
1.25
  0
INSERT
  5
9FC
  8
0
  6
CONTINUOUS
 62
     7
  2
KOZU0001
 10
695.95360999999957
 20
503.84102999999988
 30
0.0
  0
INSERT
  5
9FD
  8
0
  6
CONTINUOUS
 62
     7
  2
KOZU0002
 10
706.95360999999957
 20
503.84102999999988
 30
0.0
  0
INSERT
  5
9FE
  8
0
  6
CONTINUOUS
 62
     7
  2
KOZU0003
 10
610.17858999999999
 20
357.84102999999982
 30
0.0
  0
INSERT
  5
9FF
  8
0
  6
CONTINUOUS
 62
     7
  2
KOZU0004
 10
618.17858999999999
 20
357.84102999999982
 30
0.0
  0
INSERT
  5
A00
  8
0
  6
CONTINUOUS
 62
     7
  2
KOZU0005
 10
665.75360000000001
 20
372.84102999999999
 30
0.0
  0
INSERT
  5
A01
  8
0
  6
CONTINUOUS
 62
     7
  2
KOZU0006
 10
665.75360000000001
 20
372.84102999999999
 30
0.0
  0
INSERT
  5
A02
  8
0
  6
CONTINUOUS
 62
     7
  2
KOZU0007
 10
655.75359999999978
 20
483.84102999999988
 30
0.0
  0
INSERT
  5
A03
  8
0
  6
CONTINUOUS
 62
     7
  2
KOZU0008
 10
655.75359999999978
 20
393.84102999999999
 30
0.0
  0
INSERT
  5
A04
  8
0
  6
CONTINUOUS
 62
     7
  2
KOZU0009
 10
601.17858999999964
 20
503.84102999999988
 30
0.0
  0
INSERT
  5
A05
  8
0
  6
CONTINUOUS
 62
     7
  2
KOZU0010
 10
627.17858999999999
 20
503.84102999999988
 30
0.0
  0
INSERT
  5
A06
  8
0
  6
CONTINUOUS
 62
     7
  2
KOZU0011
 10
627.17858999999999
 20
493.84102999999999
 30
0.0
  0
INSERT
  5
A07
  8
0
  6
CONTINUOUS
 62
     7
  2
KOZU0012
 10
623.17858999999999
 20
493.84102999999999
 30
0.0
  0
INSERT
  5
A08
  8
0
  6
CONTINUOUS
 62
     7
  2
KOZU0013
 10
623.17858999999999
 20
493.84102999999999
 30
0.0
  0
INSERT
  5
A09
  8
0
  6
CONTINUOUS
 62
     7
  2
KOZU0014
 10
605.17858999999964
 20
493.84102999999999
 30
0.0
  0
INSERT
  5
A0A
  8
0
  6
CONTINUOUS
 62
     7
  2
KOZU0015
 10
605.17858999999964
 20
493.84102999999999
 30
0.0
  0
INSERT
  5
A0B
  8
0
  6
CONTINUOUS
 62
     7
  2
KOZU0016
 10
601.17858999999964
 20
493.84102999999999
 30
0.0
  0
INSERT
  5
A0C
  8
0
  6
CONTINUOUS
 62
     7
  2
KOZU0017
 10
645.75360000000001
 20
404.34102999999988
 30
0.0
  0
INSERT
  5
A0D
  8
0
  6
CONTINUOUS
 62
     7
  2
KOZU0018
 10
645.75360000000001
 20
473.34102999999999
 30
0.0
  0
INSERT
  5
A0E
  8
0
  6
CONTINUOUS
 62
     7
  2
KOZU0019
 10
645.75360000000001
 20
404.34102999999988
 30
0.0
  0
INSERT
  5
A0F
  8
0
  6
CONTINUOUS
 62
     7
  2
KOZU0020
 10
645.75360000000001
 20
393.84102999999999
 30
0.0
  0
INSERT
  5
A10
  8
0
  6
CONTINUOUS
 62
     7
  2
KOZU0021
 10
645.75360000000001
 20
473.34102999999999
 30
0.0
  0
INSERT
  5
A11
  8
0
  6
CONTINUOUS
 62
     7
  2
KOZU0022
 10
645.75360000000001
 20
483.84102999999988
 30
0.0
  0
INSERT
  5
A12
  8
0
  6
CONTINUOUS
 62
     7
  2
KOZU0023
 10
705.45360999999968
 20
493.84102999999999
 30
0.0
  0
INSERT
  5
A13
  8
0
  6
CONTINUOUS
 62
     7
  2
KOZU0024
 10
706.95360999999957
 20
493.84102999999999
 30
0.0
  0
INSERT
  5
A14
  8
0
  6
CONTINUOUS
 62
     7
  2
KOZU0025
 10
621.99445000000003
 20
470.47609999999992
 30
0.0
  0
INSERT
  5
A15
  8
0
  6
CONTINUOUS
 62
     7
  2
KOZU0026
 10
624.36273000000006
 20
476.20595999999989
 30
0.0
  0
INSERT
  5
A16
  8
0
  6
CONTINUOUS
 62
     7
  2
KOZU0027
 10
701.45360999999968
 20
493.84102999999999
 30
0.0
  0
INSERT
  5
A17
  8
0
  6
CONTINUOUS
 62
     7
  2
KOZU0028
 10
695.95360999999957
 20
493.84102999999999
 30
0.0
  0
INSERT
  5
A18
  8
0
  6
CONTINUOUS
 62
     7
  2
KOZU0029
 10
614.17858999999999
 20
454.73824999999999
 30
0.0
  0
INSERT
  5
A19
  8
0
  6
CONTINUOUS
 62
     7
  2
KOZU0030
 10
630.75359999999978
 20
454.73824999999999
 30
0.0
  0
LINE
  5
A1A
  8
0
  6
CONTINUOUS
 10
704.02362000000005
 20
460.60354999999993
 30
0.0
 11
704.02362000000005
 21
465.96602999999988
 31
0.0
  0
LINE
  5
A1B
  8
0
  6
CENTER
 62
     4
 10
694.27050499999984
 20
440.76229999999998
 30
0.0
 11
708.63671499999964
 21
440.76229999999998
 31
0.0
  0
LINE
  5
A1D
  8
0
  6
CONTINUOUS
 62
     7
 10
704.33032162508891
 20
443.44353999999998
 30
0.0
 11
705.45360999999968
 21
443.44353999999993
 31
0.0
  0
LINE
  5
A1E
  8
0
  6
CONTINUOUS
 62
     7
 10
704.33028434255641
 20
438.08101999999991
 30
0.0
 11
705.45360999999968
 21
438.08101999999991
 31
0.0
  0
ENDSEC
  0
EOF
