  0
SECTION
  2
HEADER
  9
$ACADVER
  1
AC1009
  9
$INSBASE
 10
0.0
 20
0.0
 30
0.0
  9
$EXTMIN
 10
0.0
 20
0.0
 30
0.0
  9
$EXTMAX
 10
832.52366708333227
 20
646.95318999999995
 30
0.0
  9
$LIMMIN
 10
380.85699
 20
347.45319000000001
  9
$LIMMAX
 10
800.85698999999988
 20
644.45319000000018
  9
$ORTHOMODE
 70
     0
  9
$REGENMODE
 70
     1
  9
$FILLMODE
 70
     1
  9
$QTEXTMODE
 70
     0
  9
$MIRRTEXT
 70
     1
  9
$DRAGMODE
 70
     2
  9
$LTSCALE
 40
1.0
  9
$OSMODE
 70
    37
  9
$ATTMODE
 70
     1
  9
$TEXTSIZE
 40
0.2
  9
$TRACEWID
 40
0.05
  9
$TEXTSTYLE
  7
STANDARD
  9
$CLAYER
  8
0
  9
$CELTYPE
  6
CONTINUOUS
  9
$CECOLOR
 62
   256
  9
$DIMSCALE
 40
1.0
  9
$DIMASZ
 40
1.0
  9
$DIMEXO
 40
2.54
  9
$DIMDLI
 40
0.38
  9
$DIMRND
 40
0.0
  9
$DIMDLE
 40
0.0
  9
$DIMEXE
 40
2.54
  9
$DIMTP
 40
0.0
  9
$DIMTM
 40
0.0
  9
$DIMTXT
 40
3.2000000000000002
  9
$DIMCEN
 40
0.09
  9
$DIMTSZ
 40
0.0
  9
$DIMTOL
 70
     0
  9
$DIMLIM
 70
     0
  9
$DIMTIH
 70
     0
  9
$DIMTOH
 70
     0
  9
$DIMSE1
 70
     0
  9
$DIMSE2
 70
     0
  9
$DIMTAD
 70
     1
  9
$DIMZIN
 70
     0
  9
$DIMBLK
  1

  9
$DIMASO
 70
     1
  9
$DIMSHO
 70
     0
  9
$DIMPOST
  1

  9
$DIMAPOST
  1

  9
$DIMALT
 70
     0
  9
$DIMALTD
 70
     2
  9
$DIMALTF
 40
25.399999999999999
  9
$DIMLFAC
 40
1.0
  9
$DIMTOFL
 70
     0
  9
$DIMTVP
 40
1.0
  9
$DIMTIX
 70
     0
  9
$DIMSOXD
 70
     0
  9
$DIMSAH
 70
     1
  9
$DIMBLK1
  1

  9
$DIMBLK2
  1

  9
$DIMSTYLE
  2
STANDARD
  9
$DIMCLRD
 70
     0
  9
$DIMCLRE
 70
     0
  9
$DIMCLRT
 70
     0
  9
$DIMTFAC
 40
1.0
  9
$DIMGAP
 40
1.6000000000000001
  9
$LUNITS
 70
     2
  9
$LUPREC
 70
     4
  9
$SKETCHINC
 40
0.1
  9
$FILLETRAD
 40
0.0
  9
$AUNITS
 70
     0
  9
$AUPREC
 70
     0
  9
$MENU
  1
.
  9
$ELEVATION
 40
0.0
  9
$PELEVATION
 40
0.0
  9
$THICKNESS
 40
0.0
  9
$LIMCHECK
 70
     0
  9
$BLIPMODE
 70
     0
  9
$CHAMFERA
 40
0.0
  9
$CHAMFERB
 40
0.0
  9
$SKPOLY
 70
     0
  9
$TDCREATE
 40
2452809.6908803582
  9
$TDUPDATE
 40
2452811.6480957409
  9
$TDINDWG
 40
0.0166565972
  9
$TDUSRTIMER
 40
0.0166538194
  9
$USRTIMER
 70
     1
  9
$ANGBASE
 50
0.0
  9
$ANGDIR
 70
     0
  9
$PDMODE
 70
     0
  9
$PDSIZE
 40
0.0
  9
$PLINEWID
 40
0.0
  9
$COORDS
 70
     1
  9
$SPLFRAME
 70
     0
  9
$SPLINETYPE
 70
     6
  9
$SPLINESEGS
 70
     8
  9
$ATTDIA
 70
     0
  9
$ATTREQ
 70
     1
  9
$HANDLING
 70
 22529
  9
$HANDSEED
  5
BD8
  9
$SURFTAB1
 70
     6
  9
$SURFTAB2
 70
     6
  9
$SURFTYPE
 70
     6
  9
$SURFU
 70
     6
  9
$SURFV
 70
     6
  9
$UCSNAME
  2

  9
$UCSORG
 10
0.0
 20
0.0
 30
0.0
  9
$UCSXDIR
 10
1.0
 20
0.0
 30
0.0
  9
$UCSYDIR
 10
0.0
 20
1.0
 30
0.0
  9
$PUCSNAME
  2

  9
$PUCSORG
 10
0.0
 20
0.0
 30
0.0
  9
$PUCSXDIR
 10
1.0
 20
0.0
 30
0.0
  9
$PUCSYDIR
 10
0.0
 20
1.0
 30
0.0
  9
$USERI1
 70
     0
  9
$USERI2
 70
     0
  9
$USERI3
 70
     0
  9
$USERI4
 70
     0
  9
$USERI5
 70
     0
  9
$USERR1
 40
0.0
  9
$USERR2
 40
0.0
  9
$USERR3
 40
0.0
  9
$USERR4
 40
0.0
  9
$USERR5
 40
0.0
  9
$WORLDVIEW
 70
     1
  9
$SHADEDGE
 70
     3
  9
$SHADEDIF
 70
    70
  9
$TILEMODE
 70
     1
  9
$MAXACTVP
 70
    64
  9
$PLIMCHECK
 70
     0
  9
$PEXTMIN
 10
1.0000000000000000E+020
 20
1.0000000000000000E+020
 30
1.0000000000000000E+020
  9
$PEXTMAX
 10
-1.0000000000000000E+020
 20
-1.0000000000000000E+020
 30
-1.0000000000000000E+020
  9
$PLIMMIN
 10
380.85699
 20
347.45319000000001
  9
$PLIMMAX
 10
800.85698999999988
 20
644.45319000000018
  9
$UNITMODE
 70
     0
  9
$VISRETAIN
 70
     1
  9
$PLINEGEN
 70
     0
  9
$PSLTSCALE
 70
     1
  0
ENDSEC
  0
SECTION
  2
TABLES
  0
TABLE
  2
VPORT
 70
     2
  0
VPORT
  2
*ACTIVE
 70
     0
 10
0.0
 20
0.0
 11
1.0
 21
1.0
 12
615.14000862912565
 22
539.3096856858042
 13
0.0
 23
0.0
 14
1.0
 24
1.0
 15
0.0
 25
0.0
 16
0.0
 26
0.0
 36
1.0
 17
0.0
 27
0.0
 37
0.0
 40
294.1941535565835
 41
1.5139593908629441
 42
50.0
 43
0.0
 44
0.0
 50
0.0
 51
0.0
 71
     0
 72
   100
 73
     1
 74
     1
 75
     0
 76
     0
 77
     0
 78
     0
  0
ENDTAB
  0
TABLE
  2
LTYPE
 70
     6
  0
LTYPE
  2
CONTINUOUS
 70
     0
  3
Solid line
 72
    65
 73
     0
 40
0.0
  0
LTYPE
  2
DASHED
 70
     0
  3
__ __ __ __ __ __ __ __ __ __ __ __ __ __ __
 72
    65
 73
     2
 40
3.5
 49
2.0
 49
-1.5
  0
LTYPE
  2
CENTER
 70
     0
  3
____ _ ____ _ ____ _ ____ _ ____ _ ____ _ ____
 72
    65
 73
     4
 40
17.5
 49
13.0
 49
-1.5
 49
1.5
 49
-1.5
  0
LTYPE
  2
PHANTOM
 70
     0
  3
_____ _ _ _____ _ _ _____ _ _ _____ _ _ ____  
 72
    65
 73
     6
 40
15.5
 49
8.0
 49
-1.5
 49
1.5
 49
-1.5
 49
1.5
 49
-1.5
  0
LTYPE
  2
DOT
 70
     0
  3
. . . . . . . . . . . . . . . . . . . . . . . .
 72
    65
 73
     2
 40
0.25
 49
0.0
 49
-0.25
  0
LTYPE
  2
HIDDEN
 70
     0
  3
__ __ __ __ __ __ __ __ __ __ __ __ __ __ __
 72
    65
 73
     2
 40
3.5
 49
2.0
 49
-1.5
  0
ENDTAB
  0
TABLE
  2
LAYER
 70
     2
  0
LAYER
  2
0
 70
     0
 62
     7
  6
CONTINUOUS
  0
LAYER
  2
DEFPOINTS
 70
     0
 62
     7
  6
CONTINUOUS
  0
ENDTAB
  0
TABLE
  2
STYLE
 70
     1
  0
STYLE
  2
STANDARD
 70
     0
 40
0.0
 41
1.0
 50
0.0
 71
     0
 42
0.2
  3
txt
  4
BIGFONT
  0
ENDTAB
  0
TABLE
  2
VIEW
 70
     0
  0
ENDTAB
  0
TABLE
  2
UCS
 70
     0
  0
ENDTAB
  0
TABLE
  2
APPID
 70
     1
  0
APPID
  2
ACAD
 70
     0
  0
ENDTAB
  0
TABLE
  2
DIMSTYLE
 70
     1
  0
DIMSTYLE
  2
STANDARD
 70
     0
  3

  4

  5

  6

  7

 40
1.0
 41
0.18
 42
0.0625
 43
0.38
 44
0.18
 45
0.0
 46
0.0
 47
0.0
 48
0.0
140
0.18
141
0.09
142
0.0
143
25.399999999999999
144
1.0
145
0.0
146
1.0
147
0.09
 71
     0
 72
     0
 73
     1
 74
     1
 75
     0
 76
     0
 77
     0
 78
     0
170
     0
171
     2
172
     0
173
     0
174
     0
175
     0
176
     0
177
     0
178
     0
  0
ENDTAB
  0
ENDSEC
  0
SECTION
  2
BLOCKS
  0
BLOCK
  8
0
  2
$MODEL_SPACE
 70
     0
 10
0.0
 20
0.0
 30
0.0
  3
$MODEL_SPACE
  1

  0
ENDBLK
  5
8FC
  8
0
  0
BLOCK
 67
     1
  8
0
  2
$PAPER_SPACE
 70
     0
 10
0.0
 20
0.0
 30
0.0
  3
$PAPER_SPACE
  1

  0
ENDBLK
  5
8F8
 67
     1
  8
0
  0
BLOCK
  8
0
  2
KOZU0001
 70
     0
 10
0.0
 20
0.0
 30
0.0
  3
KOZU0001
  1

  0
POLYLINE
  5
910
  8
0
  6
CONTINUOUS
 62
     7
 66
     1
 10
0.0
 20
0.0
 30
0.0
 70
     1
 40
0.4000000100000002
 41
0.4000000100000002
  0
VERTEX
  5
B78
  8
0
  6
CONTINUOUS
 62
     7
 10
-0.2
 20
0.0
 30
0.0
 42
1.0
  0
VERTEX
  5
B79
  8
0
  6
CONTINUOUS
 62
     7
 10
0.2
 20
0.0
 30
0.0
 42
1.0
  0
SEQEND
  5
B7A
  8
0
  6
CONTINUOUS
 62
     7
  0
ENDBLK
  5
914
  8
0
  0
BLOCK
  8
0
  2
KOZU0002
 70
     0
 10
0.0
 20
0.0
 30
0.0
  3
KOZU0002
  1

  0
POLYLINE
  5
917
  8
0
  6
CONTINUOUS
 62
     7
 66
     1
 10
0.0
 20
0.0
 30
0.0
 70
     1
 40
0.4000000100000002
 41
0.4000000100000002
  0
VERTEX
  5
B7B
  8
0
  6
CONTINUOUS
 62
     7
 10
-0.2
 20
0.0
 30
0.0
 42
1.0
  0
VERTEX
  5
B7C
  8
0
  6
CONTINUOUS
 62
     7
 10
0.2
 20
0.0
 30
0.0
 42
1.0
  0
SEQEND
  5
B7D
  8
0
  6
CONTINUOUS
 62
     7
  0
ENDBLK
  5
91B
  8
0
  0
BLOCK
  8
0
  2
KOZU0003
 70
     0
 10
0.0
 20
0.0
 30
0.0
  3
KOZU0003
  1

  0
POLYLINE
  5
91E
  8
0
  6
CONTINUOUS
 62
     7
 66
     1
 10
0.0
 20
0.0
 30
0.0
 70
     1
 40
0.4000000100000002
 41
0.4000000100000002
  0
VERTEX
  5
B7E
  8
0
  6
CONTINUOUS
 62
     7
 10
-0.2
 20
0.0
 30
0.0
 42
1.0
  0
VERTEX
  5
B7F
  8
0
  6
CONTINUOUS
 62
     7
 10
0.2
 20
0.0
 30
0.0
 42
1.0
  0
SEQEND
  5
B80
  8
0
  6
CONTINUOUS
 62
     7
  0
ENDBLK
  5
922
  8
0
  0
BLOCK
  8
0
  2
KOZU0004
 70
     0
 10
0.0
 20
0.0
 30
0.0
  3
KOZU0004
  1

  0
POLYLINE
  5
925
  8
0
  6
CONTINUOUS
 62
     7
 66
     1
 10
0.0
 20
0.0
 30
0.0
 70
     1
 40
0.4000000100000002
 41
0.4000000100000002
  0
VERTEX
  5
B81
  8
0
  6
CONTINUOUS
 62
     7
 10
-0.2
 20
0.0
 30
0.0
 42
1.0
  0
VERTEX
  5
B82
  8
0
  6
CONTINUOUS
 62
     7
 10
0.2
 20
0.0
 30
0.0
 42
1.0
  0
SEQEND
  5
B83
  8
0
  6
CONTINUOUS
 62
     7
  0
ENDBLK
  5
929
  8
0
  0
BLOCK
  8
0
  2
KOZU0005
 70
     0
 10
0.0
 20
0.0
 30
0.0
  3
KOZU0005
  1

  0
POLYLINE
  5
92C
  8
0
  6
CONTINUOUS
 62
     7
 66
     1
 10
0.0
 20
0.0
 30
0.0
 70
     1
 40
0.4000000100000002
 41
0.4000000100000002
  0
VERTEX
  5
B84
  8
0
  6
CONTINUOUS
 62
     7
 10
-0.2
 20
0.0
 30
0.0
 42
1.0
  0
VERTEX
  5
B85
  8
0
  6
CONTINUOUS
 62
     7
 10
0.2
 20
0.0
 30
0.0
 42
1.0
  0
SEQEND
  5
B86
  8
0
  6
CONTINUOUS
 62
     7
  0
ENDBLK
  5
930
  8
0
  0
BLOCK
  8
0
  2
KOZU0006
 70
     0
 10
0.0
 20
0.0
 30
0.0
  3
KOZU0006
  1

  0
POLYLINE
  5
933
  8
0
  6
CONTINUOUS
 62
     7
 66
     1
 10
0.0
 20
0.0
 30
0.0
 70
     1
 40
0.4000000100000002
 41
0.4000000100000002
  0
VERTEX
  5
B87
  8
0
  6
CONTINUOUS
 62
     7
 10
-0.2
 20
0.0
 30
0.0
 42
1.0
  0
VERTEX
  5
B88
  8
0
  6
CONTINUOUS
 62
     7
 10
0.2
 20
0.0
 30
0.0
 42
1.0
  0
SEQEND
  5
B89
  8
0
  6
CONTINUOUS
 62
     7
  0
ENDBLK
  5
937
  8
0
  0
BLOCK
  8
0
  2
KOZU0007
 70
     0
 10
0.0
 20
0.0
 30
0.0
  3
KOZU0007
  1

  0
POLYLINE
  5
93A
  8
0
  6
CONTINUOUS
 62
     7
 66
     1
 10
0.0
 20
0.0
 30
0.0
 70
     1
 40
0.4000000100000002
 41
0.4000000100000002
  0
VERTEX
  5
B8A
  8
0
  6
CONTINUOUS
 62
     7
 10
-0.2
 20
0.0
 30
0.0
 42
1.0
  0
VERTEX
  5
B8B
  8
0
  6
CONTINUOUS
 62
     7
 10
0.2
 20
0.0
 30
0.0
 42
1.0
  0
SEQEND
  5
B8C
  8
0
  6
CONTINUOUS
 62
     7
  0
ENDBLK
  5
93E
  8
0
  0
BLOCK
  8
0
  2
KOZU0008
 70
     0
 10
0.0
 20
0.0
 30
0.0
  3
KOZU0008
  1

  0
POLYLINE
  5
941
  8
0
  6
CONTINUOUS
 62
     7
 66
     1
 10
0.0
 20
0.0
 30
0.0
 70
     1
 40
0.4000000100000002
 41
0.4000000100000002
  0
VERTEX
  5
B8D
  8
0
  6
CONTINUOUS
 62
     7
 10
-0.2
 20
0.0
 30
0.0
 42
1.0
  0
VERTEX
  5
B8E
  8
0
  6
CONTINUOUS
 62
     7
 10
0.2
 20
0.0
 30
0.0
 42
1.0
  0
SEQEND
  5
B8F
  8
0
  6
CONTINUOUS
 62
     7
  0
ENDBLK
  5
945
  8
0
  0
BLOCK
  8
0
  2
KOZU0009
 70
     0
 10
0.0
 20
0.0
 30
0.0
  3
KOZU0009
  1

  0
POLYLINE
  5
948
  8
0
  6
CONTINUOUS
 62
     7
 66
     1
 10
0.0
 20
0.0
 30
0.0
 70
     1
 40
0.4000000100000002
 41
0.4000000100000002
  0
VERTEX
  5
B90
  8
0
  6
CONTINUOUS
 62
     7
 10
-0.2
 20
0.0
 30
0.0
 42
1.0
  0
VERTEX
  5
B91
  8
0
  6
CONTINUOUS
 62
     7
 10
0.2
 20
0.0
 30
0.0
 42
1.0
  0
SEQEND
  5
B92
  8
0
  6
CONTINUOUS
 62
     7
  0
ENDBLK
  5
94C
  8
0
  0
BLOCK
  8
0
  2
KOZU0010
 70
     0
 10
0.0
 20
0.0
 30
0.0
  3
KOZU0010
  1

  0
POLYLINE
  5
94F
  8
0
  6
CONTINUOUS
 62
     7
 66
     1
 10
0.0
 20
0.0
 30
0.0
 70
     1
 40
0.4000000100000002
 41
0.4000000100000002
  0
VERTEX
  5
B93
  8
0
  6
CONTINUOUS
 62
     7
 10
-0.2
 20
0.0
 30
0.0
 42
1.0
  0
VERTEX
  5
B94
  8
0
  6
CONTINUOUS
 62
     7
 10
0.2
 20
0.0
 30
0.0
 42
1.0
  0
SEQEND
  5
B95
  8
0
  6
CONTINUOUS
 62
     7
  0
ENDBLK
  5
953
  8
0
  0
BLOCK
  8
0
  2
KOZU0011
 70
     0
 10
0.0
 20
0.0
 30
0.0
  3
KOZU0011
  1

  0
POLYLINE
  5
956
  8
0
  6
CONTINUOUS
 62
     7
 66
     1
 10
0.0
 20
0.0
 30
0.0
 70
     1
 40
0.4000000100000002
 41
0.4000000100000002
  0
VERTEX
  5
B96
  8
0
  6
CONTINUOUS
 62
     7
 10
-0.2
 20
0.0
 30
0.0
 42
1.0
  0
VERTEX
  5
B97
  8
0
  6
CONTINUOUS
 62
     7
 10
0.2
 20
0.0
 30
0.0
 42
1.0
  0
SEQEND
  5
B98
  8
0
  6
CONTINUOUS
 62
     7
  0
ENDBLK
  5
95A
  8
0
  0
BLOCK
  8
0
  2
KOZU0012
 70
     0
 10
0.0
 20
0.0
 30
0.0
  3
KOZU0012
  1

  0
POLYLINE
  5
95D
  8
0
  6
CONTINUOUS
 62
     7
 66
     1
 10
0.0
 20
0.0
 30
0.0
 70
     1
 40
0.4000000100000002
 41
0.4000000100000002
  0
VERTEX
  5
B99
  8
0
  6
CONTINUOUS
 62
     7
 10
-0.2
 20
0.0
 30
0.0
 42
1.0
  0
VERTEX
  5
B9A
  8
0
  6
CONTINUOUS
 62
     7
 10
0.2
 20
0.0
 30
0.0
 42
1.0
  0
SEQEND
  5
B9B
  8
0
  6
CONTINUOUS
 62
     7
  0
ENDBLK
  5
961
  8
0
  0
BLOCK
  8
0
  2
KOZU0013
 70
     0
 10
0.0
 20
0.0
 30
0.0
  3
KOZU0013
  1

  0
POLYLINE
  5
964
  8
0
  6
CONTINUOUS
 62
     7
 66
     1
 10
0.0
 20
0.0
 30
0.0
 70
     1
 40
0.4000000100000002
 41
0.4000000100000002
  0
VERTEX
  5
B9C
  8
0
  6
CONTINUOUS
 62
     7
 10
-0.2
 20
0.0
 30
0.0
 42
1.0
  0
VERTEX
  5
B9D
  8
0
  6
CONTINUOUS
 62
     7
 10
0.2
 20
0.0
 30
0.0
 42
1.0
  0
SEQEND
  5
B9E
  8
0
  6
CONTINUOUS
 62
     7
  0
ENDBLK
  5
968
  8
0
  0
BLOCK
  8
0
  2
KOZU0014
 70
     0
 10
0.0
 20
0.0
 30
0.0
  3
KOZU0014
  1

  0
POLYLINE
  5
96B
  8
0
  6
CONTINUOUS
 62
     7
 66
     1
 10
0.0
 20
0.0
 30
0.0
 70
     1
 40
0.4000000100000002
 41
0.4000000100000002
  0
VERTEX
  5
B9F
  8
0
  6
CONTINUOUS
 62
     7
 10
-0.2
 20
0.0
 30
0.0
 42
1.0
  0
VERTEX
  5
BA0
  8
0
  6
CONTINUOUS
 62
     7
 10
0.2
 20
0.0
 30
0.0
 42
1.0
  0
SEQEND
  5
BA1
  8
0
  6
CONTINUOUS
 62
     7
  0
ENDBLK
  5
96F
  8
0
  0
BLOCK
  8
0
  2
KOZU0015
 70
     0
 10
0.0
 20
0.0
 30
0.0
  3
KOZU0015
  1

  0
POLYLINE
  5
972
  8
0
  6
CONTINUOUS
 62
     7
 66
     1
 10
0.0
 20
0.0
 30
0.0
 70
     1
 40
0.4000000100000002
 41
0.4000000100000002
  0
VERTEX
  5
BA2
  8
0
  6
CONTINUOUS
 62
     7
 10
-0.2
 20
0.0
 30
0.0
 42
1.0
  0
VERTEX
  5
BA3
  8
0
  6
CONTINUOUS
 62
     7
 10
0.2
 20
0.0
 30
0.0
 42
1.0
  0
SEQEND
  5
BA4
  8
0
  6
CONTINUOUS
 62
     7
  0
ENDBLK
  5
976
  8
0
  0
BLOCK
  8
0
  2
KOZU0016
 70
     0
 10
0.0
 20
0.0
 30
0.0
  3
KOZU0016
  1

  0
POLYLINE
  5
979
  8
0
  6
CONTINUOUS
 62
     7
 66
     1
 10
0.0
 20
0.0
 30
0.0
 70
     1
 40
0.4000000100000002
 41
0.4000000100000002
  0
VERTEX
  5
BA5
  8
0
  6
CONTINUOUS
 62
     7
 10
-0.2
 20
0.0
 30
0.0
 42
1.0
  0
VERTEX
  5
BA6
  8
0
  6
CONTINUOUS
 62
     7
 10
0.2
 20
0.0
 30
0.0
 42
1.0
  0
SEQEND
  5
BA7
  8
0
  6
CONTINUOUS
 62
     7
  0
ENDBLK
  5
97D
  8
0
  0
BLOCK
  8
0
  2
KOZU0017
 70
     0
 10
0.0
 20
0.0
 30
0.0
  3
KOZU0017
  1

  0
POLYLINE
  5
980
  8
0
  6
CONTINUOUS
 62
     7
 66
     1
 10
0.0
 20
0.0
 30
0.0
 70
     1
 40
0.4000000100000002
 41
0.4000000100000002
  0
VERTEX
  5
BA8
  8
0
  6
CONTINUOUS
 62
     7
 10
-0.2
 20
0.0
 30
0.0
 42
1.0
  0
VERTEX
  5
BA9
  8
0
  6
CONTINUOUS
 62
     7
 10
0.2
 20
0.0
 30
0.0
 42
1.0
  0
SEQEND
  5
BAA
  8
0
  6
CONTINUOUS
 62
     7
  0
ENDBLK
  5
984
  8
0
  0
BLOCK
  8
0
  2
KOZU0018
 70
     0
 10
0.0
 20
0.0
 30
0.0
  3
KOZU0018
  1

  0
POLYLINE
  5
987
  8
0
  6
CONTINUOUS
 62
     7
 66
     1
 10
0.0
 20
0.0
 30
0.0
 70
     1
 40
0.4000000100000002
 41
0.4000000100000002
  0
VERTEX
  5
BAB
  8
0
  6
CONTINUOUS
 62
     7
 10
-0.2
 20
0.0
 30
0.0
 42
1.0
  0
VERTEX
  5
BAC
  8
0
  6
CONTINUOUS
 62
     7
 10
0.2
 20
0.0
 30
0.0
 42
1.0
  0
SEQEND
  5
BAD
  8
0
  6
CONTINUOUS
 62
     7
  0
ENDBLK
  5
98B
  8
0
  0
BLOCK
  8
0
  2
KOZU0019
 70
     0
 10
0.0
 20
0.0
 30
0.0
  3
KOZU0019
  1

  0
POLYLINE
  5
98E
  8
0
  6
CONTINUOUS
 62
     7
 66
     1
 10
0.0
 20
0.0
 30
0.0
 70
     1
 40
0.4000000100000002
 41
0.4000000100000002
  0
VERTEX
  5
BAE
  8
0
  6
CONTINUOUS
 62
     7
 10
-0.2
 20
0.0
 30
0.0
 42
1.0
  0
VERTEX
  5
BAF
  8
0
  6
CONTINUOUS
 62
     7
 10
0.2
 20
0.0
 30
0.0
 42
1.0
  0
SEQEND
  5
BB0
  8
0
  6
CONTINUOUS
 62
     7
  0
ENDBLK
  5
992
  8
0
  0
BLOCK
  8
0
  2
KOZU0020
 70
     0
 10
0.0
 20
0.0
 30
0.0
  3
KOZU0020
  1

  0
POLYLINE
  5
995
  8
0
  6
CONTINUOUS
 62
     7
 66
     1
 10
0.0
 20
0.0
 30
0.0
 70
     1
 40
0.4000000100000002
 41
0.4000000100000002
  0
VERTEX
  5
BB1
  8
0
  6
CONTINUOUS
 62
     7
 10
-0.2
 20
0.0
 30
0.0
 42
1.0
  0
VERTEX
  5
BB2
  8
0
  6
CONTINUOUS
 62
     7
 10
0.2
 20
0.0
 30
0.0
 42
1.0
  0
SEQEND
  5
BB3
  8
0
  6
CONTINUOUS
 62
     7
  0
ENDBLK
  5
999
  8
0
  0
BLOCK
  8
0
  2
KOZU0021
 70
     0
 10
0.0
 20
0.0
 30
0.0
  3
KOZU0021
  1

  0
POLYLINE
  5
99C
  8
0
  6
CONTINUOUS
 62
     7
 66
     1
 10
0.0
 20
0.0
 30
0.0
 70
     1
 40
0.4000000100000002
 41
0.4000000100000002
  0
VERTEX
  5
BB4
  8
0
  6
CONTINUOUS
 62
     7
 10
-0.2
 20
0.0
 30
0.0
 42
1.0
  0
VERTEX
  5
BB5
  8
0
  6
CONTINUOUS
 62
     7
 10
0.2
 20
0.0
 30
0.0
 42
1.0
  0
SEQEND
  5
BB6
  8
0
  6
CONTINUOUS
 62
     7
  0
ENDBLK
  5
9A0
  8
0
  0
BLOCK
  8
0
  2
KOZU0022
 70
     0
 10
0.0
 20
0.0
 30
0.0
  3
KOZU0022
  1

  0
POLYLINE
  5
9A3
  8
0
  6
CONTINUOUS
 62
     7
 66
     1
 10
0.0
 20
0.0
 30
0.0
 70
     1
 40
0.4000000100000002
 41
0.4000000100000002
  0
VERTEX
  5
BB7
  8
0
  6
CONTINUOUS
 62
     7
 10
-0.2
 20
0.0
 30
0.0
 42
1.0
  0
VERTEX
  5
BB8
  8
0
  6
CONTINUOUS
 62
     7
 10
0.2
 20
0.0
 30
0.0
 42
1.0
  0
SEQEND
  5
BB9
  8
0
  6
CONTINUOUS
 62
     7
  0
ENDBLK
  5
9A7
  8
0
  0
BLOCK
  8
0
  2
KOZU0023
 70
     0
 10
0.0
 20
0.0
 30
0.0
  3
KOZU0023
  1

  0
POLYLINE
  5
9AA
  8
0
  6
CONTINUOUS
 62
     7
 66
     1
 10
0.0
 20
0.0
 30
0.0
 70
     1
 40
0.4000000100000002
 41
0.4000000100000002
  0
VERTEX
  5
BBA
  8
0
  6
CONTINUOUS
 62
     7
 10
-0.2
 20
0.0
 30
0.0
 42
1.0
  0
VERTEX
  5
BBB
  8
0
  6
CONTINUOUS
 62
     7
 10
0.2
 20
0.0
 30
0.0
 42
1.0
  0
SEQEND
  5
BBC
  8
0
  6
CONTINUOUS
 62
     7
  0
ENDBLK
  5
9AE
  8
0
  0
BLOCK
  8
0
  2
KOZU0024
 70
     0
 10
0.0
 20
0.0
 30
0.0
  3
KOZU0024
  1

  0
POLYLINE
  5
9B1
  8
0
  6
CONTINUOUS
 62
     7
 66
     1
 10
0.0
 20
0.0
 30
0.0
 70
     1
 40
0.4000000100000002
 41
0.4000000100000002
  0
VERTEX
  5
BBD
  8
0
  6
CONTINUOUS
 62
     7
 10
-0.2
 20
0.0
 30
0.0
 42
1.0
  0
VERTEX
  5
BBE
  8
0
  6
CONTINUOUS
 62
     7
 10
0.2
 20
0.0
 30
0.0
 42
1.0
  0
SEQEND
  5
BBF
  8
0
  6
CONTINUOUS
 62
     7
  0
ENDBLK
  5
9B5
  8
0
  0
BLOCK
  8
0
  2
KOZU0025
 70
     0
 10
0.0
 20
0.0
 30
0.0
  3
KOZU0025
  1

  0
POLYLINE
  5
9B8
  8
0
  6
CONTINUOUS
 62
     7
 66
     1
 10
0.0
 20
0.0
 30
0.0
 70
     1
 40
0.4000000100000002
 41
0.4000000100000002
  0
VERTEX
  5
BC0
  8
0
  6
CONTINUOUS
 62
     7
 10
-0.2
 20
0.0
 30
0.0
 42
1.0
  0
VERTEX
  5
BC1
  8
0
  6
CONTINUOUS
 62
     7
 10
0.2
 20
0.0
 30
0.0
 42
1.0
  0
SEQEND
  5
BC2
  8
0
  6
CONTINUOUS
 62
     7
  0
ENDBLK
  5
9BC
  8
0
  0
BLOCK
  8
0
  2
KOZU0026
 70
     0
 10
0.0
 20
0.0
 30
0.0
  3
KOZU0026
  1

  0
POLYLINE
  5
9BF
  8
0
  6
CONTINUOUS
 62
     7
 66
     1
 10
0.0
 20
0.0
 30
0.0
 70
     1
 40
0.4000000100000002
 41
0.4000000100000002
  0
VERTEX
  5
BC3
  8
0
  6
CONTINUOUS
 62
     7
 10
-0.2
 20
0.0
 30
0.0
 42
1.0
  0
VERTEX
  5
BC4
  8
0
  6
CONTINUOUS
 62
     7
 10
0.2
 20
0.0
 30
0.0
 42
1.0
  0
SEQEND
  5
BC5
  8
0
  6
CONTINUOUS
 62
     7
  0
ENDBLK
  5
9C3
  8
0
  0
BLOCK
  8
0
  2
KOZU0027
 70
     0
 10
0.0
 20
0.0
 30
0.0
  3
KOZU0027
  1

  0
POLYLINE
  5
9C6
  8
0
  6
CONTINUOUS
 62
     7
 66
     1
 10
0.0
 20
0.0
 30
0.0
 70
     1
 40
0.4000000100000002
 41
0.4000000100000002
  0
VERTEX
  5
BC6
  8
0
  6
CONTINUOUS
 62
     7
 10
-0.2
 20
0.0
 30
0.0
 42
1.0
  0
VERTEX
  5
BC7
  8
0
  6
CONTINUOUS
 62
     7
 10
0.2
 20
0.0
 30
0.0
 42
1.0
  0
SEQEND
  5
BC8
  8
0
  6
CONTINUOUS
 62
     7
  0
ENDBLK
  5
9CA
  8
0
  0
BLOCK
  8
0
  2
KOZU0028
 70
     0
 10
0.0
 20
0.0
 30
0.0
  3
KOZU0028
  1

  0
POLYLINE
  5
9CD
  8
0
  6
CONTINUOUS
 62
     7
 66
     1
 10
0.0
 20
0.0
 30
0.0
 70
     1
 40
0.4000000100000002
 41
0.4000000100000002
  0
VERTEX
  5
BC9
  8
0
  6
CONTINUOUS
 62
     7
 10
-0.2
 20
0.0
 30
0.0
 42
1.0
  0
VERTEX
  5
BCA
  8
0
  6
CONTINUOUS
 62
     7
 10
0.2
 20
0.0
 30
0.0
 42
1.0
  0
SEQEND
  5
BCB
  8
0
  6
CONTINUOUS
 62
     7
  0
ENDBLK
  5
9D1
  8
0
  0
BLOCK
  8
0
  2
KOZU0029
 70
     0
 10
0.0
 20
0.0
 30
0.0
  3
KOZU0029
  1

  0
POLYLINE
  5
9D4
  8
0
  6
CONTINUOUS
 62
     7
 66
     1
 10
0.0
 20
0.0
 30
0.0
 70
     1
 40
0.4000000100000002
 41
0.4000000100000002
  0
VERTEX
  5
BCC
  8
0
  6
CONTINUOUS
 62
     7
 10
-0.2
 20
0.0
 30
0.0
 42
1.0
  0
VERTEX
  5
BCD
  8
0
  6
CONTINUOUS
 62
     7
 10
0.2
 20
0.0
 30
0.0
 42
1.0
  0
SEQEND
  5
BCE
  8
0
  6
CONTINUOUS
 62
     7
  0
ENDBLK
  5
9D8
  8
0
  0
BLOCK
  8
0
  2
KOZU0030
 70
     0
 10
0.0
 20
0.0
 30
0.0
  3
KOZU0030
  1

  0
POLYLINE
  5
9DB
  8
0
  6
CONTINUOUS
 62
     7
 66
     1
 10
0.0
 20
0.0
 30
0.0
 70
     1
 40
0.4000000100000002
 41
0.4000000100000002
  0
VERTEX
  5
BCF
  8
0
  6
CONTINUOUS
 62
     7
 10
-0.2
 20
0.0
 30
0.0
 42
1.0
  0
VERTEX
  5
BD0
  8
0
  6
CONTINUOUS
 62
     7
 10
0.2
 20
0.0
 30
0.0
 42
1.0
  0
SEQEND
  5
BD1
  8
0
  6
CONTINUOUS
 62
     7
  0
ENDBLK
  5
9DF
  8
0
  0
BLOCK
  8
0
  2
KOZU0031
 70
     0
 10
0.0
 20
0.0
 30
0.0
  3
KOZU0031
  1

  0
POLYLINE
  5
9E2
  8
0
  6
CONTINUOUS
 62
     7
 66
     1
 10
0.0
 20
0.0
 30
0.0
 70
     1
 40
0.4000000100000002
 41
0.4000000100000002
  0
VERTEX
  5
BD2
  8
0
  6
CONTINUOUS
 62
     7
 10
-0.2
 20
0.0
 30
0.0
 42
1.0
  0
VERTEX
  5
BD3
  8
0
  6
CONTINUOUS
 62
     7
 10
0.2
 20
0.0
 30
0.0
 42
1.0
  0
SEQEND
  5
BD4
  8
0
  6
CONTINUOUS
 62
     7
  0
ENDBLK
  5
9E6
  8
0
  0
BLOCK
  8
0
  2
KOZU0032
 70
     0
 10
0.0
 20
0.0
 30
0.0
  3
KOZU0032
  1

  0
POLYLINE
  5
9E9
  8
0
  6
CONTINUOUS
 62
     7
 66
     1
 10
0.0
 20
0.0
 30
0.0
 70
     1
 40
0.4000000100000002
 41
0.4000000100000002
  0
VERTEX
  5
BD5
  8
0
  6
CONTINUOUS
 62
     7
 10
-0.2
 20
0.0
 30
0.0
 42
1.0
  0
VERTEX
  5
BD6
  8
0
  6
CONTINUOUS
 62
     7
 10
0.2
 20
0.0
 30
0.0
 42
1.0
  0
SEQEND
  5
BD7
  8
0
  6
CONTINUOUS
 62
     7
  0
ENDBLK
  5
9ED
  8
0
  0
BLOCK
  8
0
  2
*D34
 70
     1
 10
0.0
 20
0.0
 30
0.0
  3
*D34
  1

  0
LINE
  5
9F0
  8
0
  6
CONTINUOUS
 62
     0
 10
628.92742999999984
 20
536.01566000000003
 30
0.0
 11
628.92742999999984
 21
531.37364000000002
 31
0.0
  0
LINE
  5
9F1
  8
0
  6
CONTINUOUS
 62
     0
 10
638.42742999999984
 20
536.01566000000003
 30
0.0
 11
638.42742999999984
 21
531.37364000000002
 31
0.0
  0
LINE
  5
9F2
  8
0
  6
CONTINUOUS
 62
     0
 10
629.92742999999984
 20
533.91363999999999
 30
0.0
 11
637.42742999999984
 21
533.91363999999999
 31
0.0
  0
LINE
  5
9F3
  8
0
  6
CONTINUOUS
 62
     0
 10
638.42742999999984
 20
533.91363999999999
 30
0.0
 11
657.02742999999998
 21
533.91363999999999
 31
0.0
  0
SOLID
  5
9F4
  8
0
  6
CONTINUOUS
 62
     0
 10
629.92742999999984
 20
534.08030666666662
 30
0.0
 11
629.92742999999984
 21
533.74697333333336
 31
0.0
 12
628.92742999999984
 22
533.91363999999999
 32
0.0
 13
628.92742999999984
 23
533.91363999999999
 33
0.0
  0
SOLID
  5
9F5
  8
0
  6
CONTINUOUS
 62
     0
 10
637.42742999999984
 20
534.08030666666662
 30
0.0
 11
637.42742999999984
 21
533.74697333333336
 31
0.0
 12
638.42742999999984
 22
533.91363999999999
 32
0.0
 13
638.42742999999984
 23
533.91363999999999
 33
0.0
  0
TEXT
  5
9F6
  8
0
  6
CONTINUOUS
 62
     0
 10
641.02742999999975
 20
535.51364000000001
 30
0.0
 40
3.2000000000000002
  1
9.5000
  0
POINT
  5
9F7
  8
DEFPOINTS
  6
CONTINUOUS
 62
     0
 10
628.92742999999984
 20
538.55565999999999
 30
0.0
  0
POINT
  5
9F8
  8
DEFPOINTS
  6
CONTINUOUS
 62
     0
 10
638.42742999999984
 20
538.55565999999999
 30
0.0
  0
POINT
  5
9F9
  8
DEFPOINTS
  6
CONTINUOUS
 62
     0
 10
638.42742999999984
 20
533.91363999999999
 30
0.0
  0
ENDBLK
  5
9FA
  8
0
  0
ENDSEC
  0
SECTION
  2
ENTITIES
  0
POINT
  5
9FB
  8
0
  6
CONTINUOUS
 62
     3
 10
628.92742999999984
 20
576.11365000000001
 30
0.0
  0
POINT
  5
9FC
  8
0
  6
CONTINUOUS
 62
     3
 10
639.92742999999996
 20
576.11365000000001
 30
0.0
  0
POINT
  5
9FD
  8
0
  6
CONTINUOUS
 62
     3
 10
639.92742999999996
 20
596.11365000000001
 30
0.0
  0
POINT
  5
9FE
  8
0
  6
CONTINUOUS
 62
     3
 10
549.72240999999985
 20
409.52364999999992
 30
0.0
  0
POINT
  5
9FF
  8
0
  6
CONTINUOUS
 62
     3
 10
549.72240999999985
 20
409.52364999999992
 30
0.0
  0
POINT
  5
A00
  8
0
  6
CONTINUOUS
 62
     3
 10
598.72742000000005
 20
409.52364999999992
 30
0.0
  0
POINT
  5
A01
  8
0
  6
CONTINUOUS
 62
     3
 10
543.15246999999965
 20
410.95364000000001
 30
0.0
  0
POINT
  5
A02
  8
0
  6
CONTINUOUS
 62
     3
 10
551.15246999999977
 20
410.95364000000001
 30
0.0
  0
POINT
  5
A03
  8
0
  6
CONTINUOUS
 62
     3
 10
551.15246999999977
 20
394.52364999999998
 30
0.0
  0
POINT
  5
A04
  8
0
  6
CONTINUOUS
 62
     3
 10
560.15246999999965
 20
576.11365000000001
 30
0.0
  0
POINT
  5
A05
  8
0
  6
CONTINUOUS
 62
     3
 10
560.15246999999965
 20
430.52364999999992
 30
0.0
  0
POINT
  5
A06
  8
0
  6
CONTINUOUS
 62
     3
 10
588.72742000000017
 20
430.52364999999992
 30
0.0
  0
POINT
  5
A07
  8
0
  6
CONTINUOUS
 62
     3
 10
538.15246999999988
 20
571.11365000000001
 30
0.0
  0
POINT
  5
A08
  8
0
  6
CONTINUOUS
 62
     3
 10
534.15246999999988
 20
576.11365000000001
 30
0.0
  0
POINT
  5
A09
  8
0
  6
CONTINUOUS
 62
     3
 10
534.15246999999988
 20
586.11364999999967
 30
0.0
  0
POINT
  5
A0A
  8
0
  6
CONTINUOUS
 62
     3
 10
560.15246999999965
 20
576.11365000000001
 30
0.0
  0
POINT
  5
A0B
  8
0
  6
CONTINUOUS
 62
     3
 10
556.15246999999965
 20
571.11365000000001
 30
0.0
  0
POINT
  5
A0C
  8
0
  6
CONTINUOUS
 62
     3
 10
556.15246999999965
 20
586.11364999999967
 30
0.0
  0
POINT
  5
A0D
  8
0
  6
CONTINUOUS
 62
     3
 10
556.15246999999965
 20
571.11365000000001
 30
0.0
  0
POINT
  5
A0E
  8
0
  6
CONTINUOUS
 62
     3
 10
538.15246999999988
 20
571.11365000000001
 30
0.0
  0
POINT
  5
A0F
  8
0
  6
CONTINUOUS
 62
     3
 10
538.15246999999988
 20
586.11364999999967
 30
0.0
  0
POINT
  5
A10
  8
0
  6
CONTINUOUS
 62
     3
 10
534.15246999999988
 20
576.11365000000001
 30
0.0
  0
POINT
  5
A11
  8
0
  6
CONTINUOUS
 62
     3
 10
560.15246999999965
 20
576.11365000000001
 30
0.0
  0
POINT
  5
A12
  8
0
  6
CONTINUOUS
 62
     3
 10
560.15246999999965
 20
596.11365000000001
 30
0.0
  0
POINT
  5
A13
  8
0
  6
CONTINUOUS
 62
     3
 10
561.15246999999999
 20
566.11365000000001
 30
0.0
  0
POINT
  5
A14
  8
0
  6
CONTINUOUS
 62
     3
 10
561.15246999999999
 20
503.31862999999993
 30
0.0
  0
POINT
  5
A15
  8
0
  6
CONTINUOUS
 62
     3
 10
578.72742000000005
 20
503.31862999999993
 30
0.0
  0
POINT
  5
A16
  8
0
  6
CONTINUOUS
 62
     3
 10
561.15246999999999
 20
440.52364999999992
 30
0.0
  0
POINT
  5
A17
  8
0
  6
CONTINUOUS
 62
     3
 10
561.15246999999999
 20
503.31862999999993
 30
0.0
  0
POINT
  5
A18
  8
0
  6
CONTINUOUS
 62
     3
 10
578.72742000000005
 20
503.31862999999993
 30
0.0
  0
POINT
  5
A19
  8
0
  6
CONTINUOUS
 62
     3
 10
561.15246999999999
 20
440.52364999999992
 30
0.0
  0
POINT
  5
A1A
  8
0
  6
CONTINUOUS
 62
     3
 10
560.15246999999965
 20
430.52364999999992
 30
0.0
  0
POINT
  5
A1B
  8
0
  6
CONTINUOUS
 62
     3
 10
578.72742000000005
 20
430.52364999999992
 30
0.0
  0
POINT
  5
A1C
  8
0
  6
CONTINUOUS
 62
     3
 10
560.15246999999965
 20
576.11365000000001
 30
0.0
  0
POINT
  5
A1D
  8
0
  6
CONTINUOUS
 62
     3
 10
561.15246999999999
 20
566.11365000000001
 30
0.0
  0
POINT
  5
A1E
  8
0
  6
CONTINUOUS
 62
     3
 10
578.72742000000005
 20
566.11365000000001
 30
0.0
  0
POINT
  5
A1F
  8
0
  6
CONTINUOUS
 62
     3
 10
557.14440999999988
 20
569.05065999999988
 30
0.0
  0
POINT
  5
A20
  8
0
  6
CONTINUOUS
 62
     3
 10
555.16045999999994
 20
563.17664000000002
 30
0.0
  0
POINT
  5
A21
  8
0
  6
CONTINUOUS
 62
     7
 10
0.0
 20
0.0
 30
0.0
  0
POINT
  5
A22
  8
0
  6
CONTINUOUS
 62
     3
 10
638.42742999999984
 20
576.11365000000001
 30
0.0
  0
POINT
  5
A23
  8
0
  6
CONTINUOUS
 62
     3
 10
639.92742999999996
 20
576.11365000000001
 30
0.0
  0
POINT
  5
A24
  8
0
  6
CONTINUOUS
 62
     3
 10
639.92742999999996
 20
586.11364999999967
 30
0.0
  0
POINT
  5
A25
  8
0
  6
CONTINUOUS
 62
     3
 10
634.42742999999984
 20
580.4301099999999
 30
0.0
  0
POINT
  5
A26
  8
0
  6
CONTINUOUS
 62
     3
 10
628.92742999999984
 20
576.11365000000001
 30
0.0
  0
POINT
  5
A27
  8
0
  6
CONTINUOUS
 62
     3
 10
628.92742999999984
 20
586.11364999999967
 30
0.0
  0
POINT
  5
A28
  8
0
  6
CONTINUOUS
 62
     3
 10
563.72742000000017
 20
540.41314999999997
 30
0.0
  0
POINT
  5
A29
  8
0
  6
CONTINUOUS
 62
     3
 10
547.15246999999977
 20
540.41314999999997
 30
0.0
  0
POINT
  5
A2A
  8
0
  6
CONTINUOUS
 62
     3
 10
547.15246999999977
 20
550.30634000000009
 30
0.0
  0
LINE
  5
A2B
  8
0
  6
CONTINUOUS
 62
     7
 10
701.75659000000007
 20
379.06661999999989
 30
0.0
 11
763.75658999999985
 21
379.06661999999989
 31
0.0
  0
LINE
  5
A2C
  8
0
  6
CONTINUOUS
 62
     7
 10
701.75659000000007
 20
419.06661999999989
 30
0.0
 11
763.75658999999985
 21
419.06661999999989
 31
0.0
  0
LINE
  5
A2D
  8
0
  6
CONTINUOUS
 62
     7
 10
701.75659000000007
 20
409.06662
 30
0.0
 11
763.75658999999985
 21
409.06662
 31
0.0
  0
LINE
  5
A2E
  8
0
  6
CONTINUOUS
 62
     7
 10
701.75659000000007
 20
399.06662
 30
0.0
 11
763.75658999999985
 21
399.06662
 31
0.0
  0
LINE
  5
A2F
  8
0
  6
CONTINUOUS
 62
     7
 10
701.75659000000007
 20
389.06662
 30
0.0
 11
763.75658999999985
 21
389.06662
 31
0.0
  0
LINE
  5
A30
  8
0
  6
CENTER
 62
     4
 10
627.40448000000004
 20
536.23464999999999
 30
0.0
 11
641.77068999999995
 21
536.23464999999999
 31
0.0
  0
LINE
  5
A31
  8
0
  6
CONTINUOUS
 62
     3
 10
628.92742999999984
 20
577.11364999999989
 30
0.0
 11
628.92742999999984
 21
597.11365000000001
 31
0.0
  0
LINE
  5
A32
  8
0
  6
CONTINUOUS
 62
     3
 10
639.92742999999996
 20
577.11364999999989
 30
0.0
 11
639.92742999999996
 21
597.11365000000001
 31
0.0
  0
LINE
  5
A33
  8
0
  6
CONTINUOUS
 62
     3
 10
629.72748000000001
 20
596.11365000000001
 30
0.0
 11
639.12744000000021
 21
596.11365000000001
 31
0.0
  0
LINE
  5
A34
  8
0
  6
CONTINUOUS
 62
     7
 10
629.32744999999977
 20
596.11365000000001
 30
0.0
 11
629.72748000000001
 21
596.11365000000001
 31
0.0
  0
LINE
  5
A35
  8
0
  6
CONTINUOUS
 62
     7
 10
639.52746999999977
 20
596.11365000000001
 30
0.0
 11
639.12744000000021
 21
596.11365000000001
 31
0.0
  0
LINE
  5
A36
  8
0
  6
CONTINUOUS
 62
     7
 10
543.15246999999965
 20
430.52364999999992
 30
0.0
 11
543.15246999999965
 21
410.95364000000001
 31
0.0
  0
LINE
  5
A37
  8
0
  6
CONTINUOUS
 62
     7
 10
551.15246999999977
 20
430.52364999999992
 30
0.0
 11
551.15246999999977
 21
410.95364000000001
 31
0.0
  0
LINE
  5
A38
  8
0
  6
CENTER
 62
     4
 10
634.42742999999984
 20
580.4301099999999
 30
0.0
 11
634.42742999999984
 21
407.16036999999989
 31
0.0
  0
LINE
  5
A39
  8
0
  6
CONTINUOUS
 62
     7
 10
630.42742999999984
 20
430.52364999999992
 30
0.0
 11
630.42742999999984
 21
410.95364000000001
 31
0.0
  0
LINE
  5
A3A
  8
0
  6
CONTINUOUS
 62
     7
 10
638.42742999999984
 20
430.52364999999992
 30
0.0
 11
638.42742999999984
 21
410.95364000000001
 31
0.0
  0
LINE
  5
A3B
  8
0
  6
CENTER
 62
     4
 10
547.15246999999977
 20
583.80950999999982
 30
0.0
 11
547.15246999999977
 21
407.24023
 31
0.0
  0
LINE
  5
A3C
  8
0
  6
CONTINUOUS
 62
     3
 10
550.72240999999997
 20
409.52364999999992
 30
0.0
 11
599.72742000000005
 21
409.52364999999992
 31
0.0
  0
LINE
  5
A3D
  8
0
  6
CONTINUOUS
 62
     3
 10
550.72240999999997
 20
409.52364999999992
 30
0.0
 11
599.72742000000005
 21
409.52364999999992
 31
0.0
  0
LINE
  5
A3E
  8
0
  6
CONTINUOUS
 62
     3
 10
598.72742000000005
 20
408.72362999999979
 30
0.0
 11
598.72742000000005
 21
407.92365000000001
 31
0.0
  0
LINE
  5
A3F
  8
0
  6
CONTINUOUS
 62
     3
 10
598.72742000000005
 20
410.32364000000001
 30
0.0
 11
598.72742000000005
 21
466.17364999999978
 31
0.0
  0
LINE
  5
A40
  8
0
  6
CONTINUOUS
 62
     7
 10
598.72742000000005
 20
409.12365999999997
 30
0.0
 11
598.72742000000005
 21
408.72362999999979
 31
0.0
  0
LINE
  5
A41
  8
0
  6
CONTINUOUS
 62
     7
 10
598.72742000000005
 20
409.92364999999978
 30
0.0
 11
598.72742000000005
 21
410.32364000000001
 31
0.0
  0
LINE
  5
A42
  8
0
  6
CONTINUOUS
 62
     7
 10
543.15246999999965
 20
410.95364000000001
 30
0.0
 11
551.15246999999977
 21
410.95364000000001
 31
0.0
  0
LINE
  5
A43
  8
0
  6
CONTINUOUS
 62
     7
 10
543.15246999999965
 20
410.95366999999987
 30
0.0
 11
544.58245999999986
 21
409.52364999999992
 31
0.0
  0
LINE
  5
A44
  8
0
  6
CONTINUOUS
 62
     3
 10
543.15246999999965
 20
409.95363999999989
 30
0.0
 11
543.15246999999965
 21
393.52364999999992
 31
0.0
  0
LINE
  5
A45
  8
0
  6
CONTINUOUS
 62
     3
 10
551.15246999999977
 20
409.95363999999989
 30
0.0
 11
551.15246999999977
 21
393.52364999999992
 31
0.0
  0
LINE
  5
A46
  8
0
  6
CONTINUOUS
 62
     3
 10
543.95245
 20
394.52364999999998
 30
0.0
 11
550.35242000000005
 21
394.52364999999998
 31
0.0
  0
LINE
  5
A47
  8
0
  6
CONTINUOUS
 62
     7
 10
543.55242999999984
 20
394.52364999999998
 30
0.0
 11
543.95245
 21
394.52364999999998
 31
0.0
  0
LINE
  5
A48
  8
0
  6
CONTINUOUS
 62
     7
 10
550.75244000000009
 20
394.52364999999998
 30
0.0
 11
550.35242000000005
 21
394.52364999999998
 31
0.0
  0
LINE
  5
A49
  8
0
  6
CONTINUOUS
 62
     7
 10
551.15246999999977
 20
410.95366999999987
 30
0.0
 11
549.72247000000004
 21
409.52364999999992
 31
0.0
  0
LINE
  5
A4A
  8
0
  6
CONTINUOUS
 62
     7
 10
544.58245999999986
 20
409.52364999999992
 30
0.0
 11
549.72240999999985
 21
409.52364999999992
 31
0.0
  0
LINE
  5
A4B
  8
0
  6
CONTINUOUS
 62
     7
 10
630.42742999999984
 20
410.95364000000001
 30
0.0
 11
638.42742999999984
 21
410.95364000000001
 31
0.0
  0
LINE
  5
A4C
  8
0
  6
CONTINUOUS
 62
     7
 10
631.85742000000005
 20
409.52364999999992
 30
0.0
 11
636.99743999999998
 21
409.52364999999992
 31
0.0
  0
LINE
  5
A4D
  8
0
  6
CONTINUOUS
 62
     7
 10
630.42742999999984
 20
410.95364000000001
 30
0.0
 11
631.85742000000005
 21
409.52364999999992
 31
0.0
  0
LINE
  5
A4E
  8
0
  6
CONTINUOUS
 62
     7
 10
638.42742999999984
 20
410.95361000000003
 30
0.0
 11
636.99743999999998
 21
409.52364999999992
 31
0.0
  0
LINE
  5
A4F
  8
0
  6
CONTINUOUS
 62
     3
 10
561.15246999999999
 20
576.11365000000001
 30
0.0
 11
589.72742000000005
 21
576.11365000000001
 31
0.0
  0
LINE
  5
A50
  8
0
  6
CONTINUOUS
 62
     3
 10
561.15246999999999
 20
430.52364999999992
 30
0.0
 11
589.72742000000005
 21
430.52364999999992
 31
0.0
  0
LINE
  5
A51
  8
0
  6
CONTINUOUS
 62
     3
 10
588.72742000000017
 20
575.31365999999946
 30
0.0
 11
588.72742000000017
 21
431.32364000000001
 31
0.0
  0
LINE
  5
A52
  8
0
  6
CONTINUOUS
 62
     7
 10
588.72742000000017
 20
575.71361999999965
 30
0.0
 11
588.72742000000017
 21
575.31365999999946
 31
0.0
  0
LINE
  5
A53
  8
0
  6
CONTINUOUS
 62
     7
 10
588.72742000000017
 20
430.92364999999978
 30
0.0
 11
588.72742000000017
 21
431.32364000000001
 31
0.0
  0
LINE
  5
A54
  8
0
  6
CONTINUOUS
 62
     3
 10
538.15246999999988
 20
572.11365000000001
 30
0.0
 11
538.15246999999988
 21
587.11365000000001
 31
0.0
  0
LINE
  5
A55
  8
0
  6
CONTINUOUS
 62
     3
 10
534.15246999999988
 20
577.11364999999989
 30
0.0
 11
534.15246999999988
 21
587.11365000000001
 31
0.0
  0
LINE
  5
A56
  8
0
  6
CONTINUOUS
 62
     3
 10
538.95245
 20
586.11364999999967
 30
0.0
 11
539.75243999999986
 21
586.11364999999967
 31
0.0
  0
LINE
  5
A57
  8
0
  6
CONTINUOUS
 62
     3
 10
533.35242000000005
 20
586.11364999999967
 30
0.0
 11
532.55242999999984
 21
586.11364999999967
 31
0.0
  0
LINE
  5
A58
  8
0
  6
CONTINUOUS
 62
     3
 10
538.15246999999988
 20
586.11364999999967
 30
0.0
 11
534.15246999999988
 21
586.11364999999967
 31
0.0
  0
LINE
  5
A59
  8
0
  6
CONTINUOUS
 62
     7
 10
538.55242999999984
 20
586.11364999999967
 30
0.0
 11
538.95245
 21
586.11364999999967
 31
0.0
  0
LINE
  5
A5A
  8
0
  6
CONTINUOUS
 62
     7
 10
533.75244000000009
 20
586.11364999999967
 30
0.0
 11
533.35242000000005
 21
586.11364999999967
 31
0.0
  0
LINE
  5
A5B
  8
0
  6
CONTINUOUS
 62
     3
 10
560.15246999999965
 20
577.11364999999989
 30
0.0
 11
560.15246999999965
 21
587.11365000000001
 31
0.0
  0
LINE
  5
A5C
  8
0
  6
CONTINUOUS
 62
     3
 10
556.15246999999965
 20
572.11365000000001
 30
0.0
 11
556.15246999999965
 21
587.11365000000001
 31
0.0
  0
LINE
  5
A5D
  8
0
  6
CONTINUOUS
 62
     3
 10
560.95245
 20
586.11364999999967
 30
0.0
 11
561.75243999999986
 21
586.11364999999967
 31
0.0
  0
LINE
  5
A5E
  8
0
  6
CONTINUOUS
 62
     3
 10
555.35242000000005
 20
586.11364999999967
 30
0.0
 11
554.55242999999984
 21
586.11364999999967
 31
0.0
  0
LINE
  5
A5F
  8
0
  6
CONTINUOUS
 62
     3
 10
560.15246999999965
 20
586.11364999999967
 30
0.0
 11
556.15246999999965
 21
586.11364999999967
 31
0.0
  0
LINE
  5
A60
  8
0
  6
CONTINUOUS
 62
     7
 10
560.55242999999984
 20
586.11364999999967
 30
0.0
 11
560.95245
 21
586.11364999999967
 31
0.0
  0
LINE
  5
A61
  8
0
  6
CONTINUOUS
 62
     7
 10
555.75244000000009
 20
586.11364999999967
 30
0.0
 11
555.35242000000005
 21
586.11364999999967
 31
0.0
  0
LINE
  5
A62
  8
0
  6
CONTINUOUS
 62
     3
 10
556.15246999999965
 20
572.11365000000001
 30
0.0
 11
556.15246999999965
 21
587.11365000000001
 31
0.0
  0
LINE
  5
A63
  8
0
  6
CONTINUOUS
 62
     3
 10
538.15246999999988
 20
572.11365000000001
 30
0.0
 11
538.15246999999988
 21
587.11365000000001
 31
0.0
  0
LINE
  5
A64
  8
0
  6
CONTINUOUS
 62
     3
 10
555.35242000000005
 20
586.11364999999967
 30
0.0
 11
538.95245
 21
586.11364999999967
 31
0.0
  0
LINE
  5
A65
  8
0
  6
CONTINUOUS
 62
     7
 10
555.75244000000009
 20
586.11364999999967
 30
0.0
 11
555.35242000000005
 21
586.11364999999967
 31
0.0
  0
LINE
  5
A66
  8
0
  6
CONTINUOUS
 62
     7
 10
538.55242999999984
 20
586.11364999999967
 30
0.0
 11
538.95245
 21
586.11364999999967
 31
0.0
  0
LINE
  5
A67
  8
0
  6
CONTINUOUS
 62
     3
 10
534.15246999999988
 20
577.11364999999989
 30
0.0
 11
534.15246999999988
 21
597.11365000000001
 31
0.0
  0
LINE
  5
A68
  8
0
  6
CONTINUOUS
 62
     3
 10
560.15246999999965
 20
577.11364999999989
 30
0.0
 11
560.15246999999965
 21
597.11365000000001
 31
0.0
  0
LINE
  5
A69
  8
0
  6
CONTINUOUS
 62
     3
 10
534.95245
 20
596.11365000000001
 30
0.0
 11
559.35242000000005
 21
596.11365000000001
 31
0.0
  0
LINE
  5
A6A
  8
0
  6
CONTINUOUS
 62
     7
 10
534.55242999999996
 20
596.11365000000001
 30
0.0
 11
534.95245
 21
596.11365000000001
 31
0.0
  0
LINE
  5
A6B
  8
0
  6
CONTINUOUS
 62
     7
 10
559.75244000000009
 20
596.11365000000001
 30
0.0
 11
559.35242000000005
 21
596.11365000000001
 31
0.0
  0
LINE
  5
A6C
  8
0
  6
CENTER
 62
     4
 10
542.25603999999998
 20
536.48064999999986
 30
0.0
 11
564.91284000000019
 21
536.48064999999986
 31
0.0
  0
LINE
  5
A6D
  8
0
  6
CENTER
 62
     4
 10
561.15246999999999
 20
566.11365000000001
 30
0.0
 11
551.15246999999977
 21
566.11365000000001
 31
0.0
  0
LINE
  5
A6E
  8
0
  6
CONTINUOUS
 62
     7
 10
555.8624299999999
 20
538.66534000000001
 30
0.0
 11
563.01244999999994
 21
538.66534000000001
 31
0.0
  0
LINE
  5
A6F
  8
0
  6
CONTINUOUS
 62
     7
 10
555.8624299999999
 20
537.79143999999985
 30
0.0
 11
563.01244999999994
 21
537.79143999999985
 31
0.0
  0
LINE
  5
A70
  8
0
  6
CONTINUOUS
 62
     7
 10
555.8624299999999
 20
536.91754000000003
 30
0.0
 11
563.01244999999994
 21
536.91754000000003
 31
0.0
  0
LINE
  5
A71
  8
0
  6
CONTINUOUS
 62
     7
 10
555.8624299999999
 20
536.04369999999994
 30
0.0
 11
563.01244999999994
 21
536.04369999999994
 31
0.0
  0
LINE
  5
A72
  8
0
  6
CONTINUOUS
 62
     7
 10
555.8624299999999
 20
535.16979999999978
 30
0.0
 11
563.01244999999994
 21
535.16979999999978
 31
0.0
  0
LINE
  5
A73
  8
0
  6
CONTINUOUS
 62
     7
 10
555.8624299999999
 20
539.53925000000004
 30
0.0
 11
563.01244999999994
 21
539.53925000000004
 31
0.0
  0
LINE
  5
A74
  8
0
  6
CONTINUOUS
 62
     7
 10
555.8624299999999
 20
534.29589999999985
 30
0.0
 11
563.01244999999994
 21
534.29589999999985
 31
0.0
  0
LINE
  5
A75
  8
0
  6
CONTINUOUS
 62
     7
 10
555.8624299999999
 20
533.42200000000003
 30
0.0
 11
563.01244999999994
 21
533.42200000000003
 31
0.0
  0
LINE
  5
A76
  8
0
  6
CONTINUOUS
 62
     7
 10
555.8624299999999
 20
532.54816000000005
 30
0.0
 11
563.01244999999994
 21
532.54816000000005
 31
0.0
  0
LINE
  5
A77
  8
0
  6
CONTINUOUS
 62
     7
 10
555.8624299999999
 20
540.41314999999997
 30
0.0
 11
563.01244999999994
 21
540.41314999999997
 31
0.0
  0
LINE
  5
A78
  8
0
  6
CENTER
 62
     4
 10
561.15246999999999
 20
440.52364999999992
 30
0.0
 11
551.15246999999977
 21
440.52364999999992
 31
0.0
  0
LINE
  5
A79
  8
0
  6
CENTER
 62
     4
 10
561.15246999999999
 20
503.31862999999993
 30
0.0
 11
551.15246999999977
 21
503.31862999999993
 31
0.0
  0
LINE
  5
A7A
  8
0
  6
CONTINUOUS
 62
     7
 10
534.15246999999988
 20
430.52364999999992
 30
0.0
 11
560.15246999999965
 21
430.52364999999992
 31
0.0
  0
LINE
  5
A7B
  8
0
  6
CONTINUOUS
 62
     7
 10
534.15246999999988
 20
576.11365000000001
 30
0.0
 11
560.15246999999965
 21
576.11365000000001
 31
0.0
  0
LINE
  5
A7C
  8
0
  6
CONTINUOUS
 62
     7
 10
552.87243999999976
 20
559.23364000000004
 30
0.0
 11
552.87243999999976
 21
538.55565999999999
 31
0.0
  0
LINE
  5
A7D
  8
0
  6
CONTINUOUS
 62
     7
 10
541.43242999999995
 20
576.11365000000001
 30
0.0
 11
541.43242999999995
 21
430.52364999999992
 31
0.0
  0
LINE
  5
A7E
  8
0
  6
CENTER
 62
     4
 10
556.15246999999965
 20
508.31862999999998
 30
0.0
 11
556.15246999999965
 21
498.31862999999981
 31
0.0
  0
LINE
  5
A7F
  8
0
  6
CENTER
 62
     4
 10
538.15246999999988
 20
508.31862999999998
 30
0.0
 11
538.15246999999988
 21
498.31862999999981
 31
0.0
  0
LINE
  5
A80
  8
0
  6
CONTINUOUS
 62
     7
 10
534.15246999999988
 20
576.11365000000001
 30
0.0
 11
534.15246999999988
 21
430.52364999999992
 31
0.0
  0
LINE
  5
A81
  8
0
  6
CENTER
 62
     4
 10
543.15246999999965
 20
440.52364999999992
 30
0.0
 11
533.15246999999999
 21
440.52364999999992
 31
0.0
  0
LINE
  5
A82
  8
0
  6
CENTER
 62
     4
 10
538.15246999999988
 20
445.5236499999998
 30
0.0
 11
538.15246999999988
 21
435.52364999999998
 31
0.0
  0
LINE
  5
A83
  8
0
  6
CENTER
 62
     4
 10
556.15246999999965
 20
445.5236499999998
 30
0.0
 11
556.15246999999965
 21
435.52364999999998
 31
0.0
  0
LINE
  5
A84
  8
0
  6
CONTINUOUS
 62
     7
 10
541.43242999999995
 20
538.55565999999999
 30
0.0
 11
544.64995999999996
 21
538.55565999999999
 31
0.0
  0
LINE
  5
A85
  8
0
  6
CONTINUOUS
 62
     7
 10
541.43242999999995
 20
555.01367000000005
 30
0.0
 11
544.64995999999996
 21
555.01367000000005
 31
0.0
  0
LINE
  5
A86
  8
0
  6
CONTINUOUS
 62
     7
 10
541.43242999999995
 20
533.91363999999999
 30
0.0
 11
555.14745999999968
 21
533.91363999999999
 31
0.0
  0
LINE
  5
A87
  8
0
  6
CONTINUOUS
 62
     7
 10
541.43242999999995
 20
559.23364000000004
 30
0.0
 11
552.87243999999976
 21
559.23364000000004
 31
0.0
  0
LINE
  5
A88
  8
0
  6
CENTER
 62
     4
 10
543.15246999999965
 20
503.31862999999993
 30
0.0
 11
533.15246999999999
 21
503.31862999999993
 31
0.0
  0
LINE
  5
A89
  8
0
  6
CONTINUOUS
 62
     7
 10
543.21990999999991
 20
538.55565999999999
 30
0.0
 11
543.21990999999991
 21
533.91363999999999
 31
0.0
  0
LINE
  5
A8A
  8
0
  6
CENTER
 62
     4
 10
543.15246999999965
 20
566.11365000000001
 30
0.0
 11
533.15246999999999
 21
566.11365000000001
 31
0.0
  0
LINE
  5
A8B
  8
0
  6
CENTER
 62
     4
 10
538.15246999999988
 20
571.11365000000001
 30
0.0
 11
538.15246999999988
 21
561.11364999999967
 31
0.0
  0
LINE
  5
A8C
  8
0
  6
CONTINUOUS
 62
     7
 10
543.21990999999991
 20
559.23364000000004
 30
0.0
 11
543.21990999999991
 21
555.01367000000005
 31
0.0
  0
LINE
  5
A8D
  8
0
  6
CONTINUOUS
 62
     7
 10
549.65497000000005
 20
555.01367000000005
 30
0.0
 11
549.65497000000005
 21
538.55565999999999
 31
0.0
  0
LINE
  5
A8E
  8
0
  6
CONTINUOUS
 62
     7
 10
544.64995999999996
 20
555.01367000000005
 30
0.0
 11
544.64995999999996
 21
538.55565999999999
 31
0.0
  0
LINE
  5
A8F
  8
0
  6
CONTINUOUS
 62
     7
 10
555.14745999999968
 20
538.55565999999999
 30
0.0
 11
549.65497000000005
 21
538.55565999999999
 31
0.0
  0
LINE
  5
A90
  8
0
  6
CONTINUOUS
 62
     7
 10
551.08495999999991
 20
538.55565999999999
 30
0.0
 11
551.08495999999991
 21
533.91363999999999
 31
0.0
  0
LINE
  5
A91
  8
0
  6
CONTINUOUS
 62
     7
 10
549.65497000000005
 20
554.94365999999991
 30
0.0
 11
552.87243999999976
 21
554.94365999999991
 31
0.0
  0
LINE
  5
A92
  8
0
  6
CENTER
 62
     4
 10
556.15246999999965
 20
571.11365000000001
 30
0.0
 11
556.15246999999965
 21
561.11364999999967
 31
0.0
  0
LINE
  5
A93
  8
0
  6
CONTINUOUS
 62
     7
 10
555.8624299999999
 20
532.54816000000005
 30
0.0
 11
555.8624299999999
 21
540.41314999999997
 31
0.0
  0
LINE
  5
A94
  8
0
  6
CONTINUOUS
 62
     7
 10
555.14745999999968
 20
533.26311999999984
 30
0.0
 11
555.8624299999999
 21
532.54816000000005
 31
0.0
  0
LINE
  5
A95
  8
0
  6
CONTINUOUS
 62
     7
 10
555.8624299999999
 20
540.41314999999997
 30
0.0
 11
555.14745999999968
 21
539.6981199999999
 31
0.0
  0
LINE
  5
A96
  8
0
  6
CONTINUOUS
 62
     7
 10
555.14745999999968
 20
533.26311999999984
 30
0.0
 11
555.14745999999968
 21
539.6981199999999
 31
0.0
  0
LINE
  5
A97
  8
0
  6
CONTINUOUS
 62
     7
 10
551.08495999999991
 20
559.23364000000004
 30
0.0
 11
551.08495999999991
 21
554.94365999999991
 31
0.0
  0
LINE
  5
A98
  8
0
  6
CONTINUOUS
 62
     7
 10
552.87243999999976
 20
576.11365000000001
 30
0.0
 11
552.87243999999976
 21
559.23364000000004
 31
0.0
  0
LINE
  5
A99
  8
0
  6
CONTINUOUS
 62
     7
 10
560.15246999999965
 20
561.02117999999996
 30
0.0
 11
560.15246999999965
 21
540.41314999999997
 31
0.0
  0
LINE
  5
A9A
  8
0
  6
CONTINUOUS
 62
     3
 10
562.15246999999999
 20
566.11365000000001
 30
0.0
 11
579.72742000000017
 21
566.11365000000001
 31
0.0
  0
LINE
  5
A9B
  8
0
  6
CONTINUOUS
 62
     3
 10
562.15246999999999
 20
503.31862999999993
 30
0.0
 11
579.72742000000017
 21
503.31862999999993
 31
0.0
  0
LINE
  5
A9C
  8
0
  6
CONTINUOUS
 62
     3
 10
578.72742000000005
 20
565.3136599999998
 30
0.0
 11
578.72742000000005
 21
504.11865
 31
0.0
  0
LINE
  5
A9D
  8
0
  6
CONTINUOUS
 62
     7
 10
578.72742000000005
 20
565.71361999999999
 30
0.0
 11
578.72742000000005
 21
565.3136599999998
 31
0.0
  0
LINE
  5
A9E
  8
0
  6
CONTINUOUS
 62
     7
 10
578.72742000000005
 20
503.71865999999989
 30
0.0
 11
578.72742000000005
 21
504.11865
 31
0.0
  0
LINE
  5
A9F
  8
0
  6
CONTINUOUS
 62
     3
 10
562.15246999999999
 20
440.52364999999992
 30
0.0
 11
579.72742000000017
 21
440.52364999999992
 31
0.0
  0
LINE
  5
AA0
  8
0
  6
CONTINUOUS
 62
     3
 10
562.15246999999999
 20
503.31862999999993
 30
0.0
 11
579.72742000000017
 21
503.31862999999993
 31
0.0
  0
LINE
  5
AA1
  8
0
  6
CONTINUOUS
 62
     3
 10
578.72742000000005
 20
441.32364000000001
 30
0.0
 11
578.72742000000005
 21
502.51864999999998
 31
0.0
  0
LINE
  5
AA2
  8
0
  6
CONTINUOUS
 62
     7
 10
578.72742000000005
 20
440.92365000000001
 30
0.0
 11
578.72742000000005
 21
441.32364000000001
 31
0.0
  0
LINE
  5
AA3
  8
0
  6
CONTINUOUS
 62
     7
 10
578.72742000000005
 20
502.91863999999993
 30
0.0
 11
578.72742000000005
 21
502.51864999999998
 31
0.0
  0
LINE
  5
AA4
  8
0
  6
CONTINUOUS
 62
     3
 10
562.15246999999999
 20
440.52364999999992
 30
0.0
 11
579.72742000000017
 21
440.52364999999992
 31
0.0
  0
LINE
  5
AA5
  8
0
  6
CONTINUOUS
 62
     3
 10
561.15246999999999
 20
430.52364999999992
 30
0.0
 11
579.72742000000017
 21
430.52364999999992
 31
0.0
  0
LINE
  5
AA6
  8
0
  6
CONTINUOUS
 62
     3
 10
578.72742000000005
 20
439.72362999999962
 30
0.0
 11
578.72742000000005
 21
431.32364000000001
 31
0.0
  0
LINE
  5
AA7
  8
0
  6
CONTINUOUS
 62
     7
 10
578.72742000000005
 20
440.1236599999998
 30
0.0
 11
578.72742000000005
 21
439.72362999999962
 31
0.0
  0
LINE
  5
AA8
  8
0
  6
CONTINUOUS
 62
     7
 10
578.72742000000005
 20
430.92364999999978
 30
0.0
 11
578.72742000000005
 21
431.32364000000001
 31
0.0
  0
LINE
  5
AA9
  8
0
  6
CONTINUOUS
 62
     3
 10
561.15246999999999
 20
576.11365000000001
 30
0.0
 11
579.72742000000017
 21
576.11365000000001
 31
0.0
  0
LINE
  5
AAA
  8
0
  6
CONTINUOUS
 62
     3
 10
562.15246999999999
 20
566.11365000000001
 30
0.0
 11
579.72742000000017
 21
566.11365000000001
 31
0.0
  0
LINE
  5
AAB
  8
0
  6
CONTINUOUS
 62
     3
 10
578.72742000000005
 20
575.31365999999946
 30
0.0
 11
578.72742000000005
 21
566.91363999999999
 31
0.0
  0
LINE
  5
AAC
  8
0
  6
CONTINUOUS
 62
     7
 10
578.72742000000005
 20
575.71361999999965
 30
0.0
 11
578.72742000000005
 21
575.31365999999946
 31
0.0
  0
LINE
  5
AAD
  8
0
  6
CONTINUOUS
 62
     7
 10
578.72742000000005
 20
566.51367000000005
 30
0.0
 11
578.72742000000005
 21
566.91363999999999
 31
0.0
  0
LINE
  5
AAE
  8
0
  6
CONTINUOUS
 62
     7
 10
563.01244999999994
 20
532.54816000000005
 30
0.0
 11
563.01244999999994
 21
540.41314999999997
 31
0.0
  0
LINE
  5
AAF
  8
0
  6
CONTINUOUS
 62
     7
 10
563.72748000000001
 20
539.6981199999999
 30
0.0
 11
563.01244999999994
 21
540.41314999999997
 31
0.0
  0
LINE
  5
AB0
  8
0
  6
CONTINUOUS
 62
     7
 10
563.01238999999998
 20
532.54816000000005
 30
0.0
 11
563.72742000000017
 21
533.26311999999984
 31
0.0
  0
LINE
  5
AB1
  8
0
  6
CONTINUOUS
 62
     7
 10
563.72742000000017
 20
533.26311999999984
 30
0.0
 11
563.72742000000017
 21
539.6981199999999
 31
0.0
  0
LINE
  5
AB2
  8
0
  6
CONTINUOUS
 62
     7
 10
560.15246999999965
 20
576.11365000000001
 30
0.0
 11
560.15246999999965
 21
561.02117999999996
 31
0.0
  0
LINE
  5
AB3
  8
0
  6
DASHED
 62
     6
 10
630.42742999999984
 20
533.91363999999999
 30
0.0
 11
630.42742999999984
 21
430.52364999999992
 31
0.0
  0
LINE
  5
AB4
  8
0
  6
CONTINUOUS
 62
     7
 10
628.92742999999984
 20
533.91363999999999
 30
0.0
 11
628.92742999999984
 21
430.52364999999992
 31
0.0
  0
LINE
  5
AB5
  8
0
  6
CONTINUOUS
 62
     7
 10
638.42742999999984
 20
576.11365000000001
 30
0.0
 11
638.42742999999984
 21
430.52364999999992
 31
0.0
  0
LINE
  5
AB6
  8
0
  6
CONTINUOUS
 62
     7
 10
639.92742999999996
 20
576.11365000000001
 30
0.0
 11
639.92742999999996
 21
430.52364999999992
 31
0.0
  0
LINE
  5
AB7
  8
0
  6
CONTINUOUS
 62
     7
 10
628.92742999999984
 20
430.52364999999992
 30
0.0
 11
639.92742999999996
 21
430.52364999999992
 31
0.0
  0
LINE
  5
AB8
  8
0
  6
DASHED
 62
     6
 10
630.42742999999984
 20
555.01367000000005
 30
0.0
 11
630.42742999999984
 21
538.55565999999999
 31
0.0
  0
LINE
  5
AB9
  8
0
  6
CONTINUOUS
 62
     7
 10
628.92742999999984
 20
555.01367000000005
 30
0.0
 11
628.92742999999984
 21
538.55565999999999
 31
0.0
  0
LINE
  5
ABA
  8
0
  6
CONTINUOUS
 62
     7
 10
628.92742999999984
 20
533.91363999999999
 30
0.0
 11
630.42742999999984
 21
533.91363999999999
 31
0.0
  0
LINE
  5
ABB
  8
0
  6
CONTINUOUS
 62
     7
 10
628.92742999999984
 20
538.55565999999999
 30
0.0
 11
630.42742999999984
 21
538.55565999999999
 31
0.0
  0
LINE
  5
ABC
  8
0
  6
CONTINUOUS
 62
     7
 10
630.42742999999984
 20
538.55565999999999
 30
0.0
 11
630.42742999999984
 21
533.91363999999999
 31
0.0
  0
LINE
  5
ABD
  8
0
  6
CONTINUOUS
 62
     7
 10
637.28747999999985
 20
559.23364000000004
 30
0.0
 11
637.28747999999985
 21
555.01367000000005
 31
0.0
  0
LINE
  5
ABE
  8
0
  6
CONTINUOUS
 62
     7
 10
628.92742999999984
 20
576.11365000000001
 30
0.0
 11
639.92742999999996
 21
576.11365000000001
 31
0.0
  0
LINE
  5
ABF
  8
0
  6
CONTINUOUS
 62
     7
 10
630.42742999999984
 20
555.01367000000005
 30
0.0
 11
630.42742999999984
 21
559.23364000000004
 31
0.0
  0
LINE
  5
AC0
  8
0
  6
CONTINUOUS
 62
     7
 10
628.92742999999984
 20
555.01367000000005
 30
0.0
 11
638.42742999999984
 21
555.01367000000005
 31
0.0
  0
LINE
  5
AC1
  8
0
  6
CONTINUOUS
 62
     7
 10
628.92742999999984
 20
559.23364000000004
 30
0.0
 11
638.42742999999984
 21
559.23364000000004
 31
0.0
  0
LINE
  5
AC2
  8
0
  6
DASHED
 62
     6
 10
630.42742999999984
 20
576.11365000000001
 30
0.0
 11
630.42742999999984
 21
559.23364000000004
 31
0.0
  0
LINE
  5
AC3
  8
0
  6
CONTINUOUS
 62
     7
 10
628.92742999999984
 20
576.11365000000001
 30
0.0
 11
628.92742999999984
 21
559.23364000000004
 31
0.0
  0
LINE
  5
AC4
  8
0
  6
CONTINUOUS
 62
     7
 10
701.75659000000007
 20
419.06661999999989
 30
0.0
 11
701.75659000000007
 21
379.06661999999989
 31
0.0
  0
LINE
  5
AC5
  8
0
  6
CONTINUOUS
 62
     7
 10
731.75658999999985
 20
419.06661999999989
 30
0.0
 11
731.75658999999985
 21
379.06661999999989
 31
0.0
  0
LINE
  5
AC6
  8
0
  6
CONTINUOUS
 62
     7
 10
747.75658999999985
 20
419.06661999999989
 30
0.0
 11
747.75658999999985
 21
379.06661999999989
 31
0.0
  0
LINE
  5
AC7
  8
0
  6
CONTINUOUS
 62
     7
 10
763.75658999999985
 20
419.06661999999989
 30
0.0
 11
763.75658999999985
 21
379.06661999999989
 31
0.0
  0
LINE
  5
AC8
  8
0
  6
CONTINUOUS
 62
     3
 10
555.41644000000008
 20
563.93456999999978
 30
0.0
 11
556.88842999999986
 21
568.29265999999996
 31
0.0
  0
LINE
  5
AC9
  8
0
  6
CONTINUOUS
 62
     3
 10
557.14440999999988
 20
569.05065999999988
 30
0.0
 11
566.28503000000001
 21
596.11365000000001
 31
0.0
  0
LINE
  5
ACA
  8
0
  6
CONTINUOUS
 62
     3
 10
566.28503000000001
 20
596.11365000000001
 30
0.0
 11
600.13653999999997
 21
596.11365000000001
 31
0.0
  0
LINE
  5
ACB
  8
0
  6
CONTINUOUS
 62
     7
 10
555.28845000000001
 20
563.55560000000003
 30
0.0
 11
555.41644000000008
 21
563.93456999999978
 31
0.0
  0
LINE
  5
ACC
  8
0
  6
CONTINUOUS
 62
     7
 10
557.01642000000004
 20
568.67169000000001
 30
0.0
 11
556.88842999999986
 21
568.29265999999996
 31
0.0
  0
LINE
  5
ACD
  8
0
  6
CONTINUOUS
 62
     7
 10
380.85699
 20
347.45319000000001
 30
0.0
 11
800.85698999999988
 21
347.45319000000001
 31
0.0
  0
LINE
  5
ACE
  8
0
  6
CONTINUOUS
 62
     7
 10
380.85699
 20
644.45319000000018
 30
0.0
 11
380.85699
 21
347.45319000000001
 31
0.0
  0
LINE
  5
ACF
  8
0
  6
CONTINUOUS
 62
     7
 10
781.35699
 20
359.45319000000001
 30
0.0
 11
781.35699
 21
632.45319000000006
 31
0.0
  0
LINE
  5
AD0
  8
0
  6
CONTINUOUS
 62
     7
 10
400.35699
 20
536.45319000000006
 30
0.0
 11
400.35699
 21
360.20319000000001
 31
0.0
  0
LINE
  5
AD1
  8
0
  6
CONTINUOUS
 62
     7
 10
781.35699
 20
632.45319000000006
 30
0.0
 11
510.35699
 21
632.45319000000006
 31
0.0
  0
LINE
  5
AD2
  8
0
  6
CONTINUOUS
 62
     7
 10
400.35699
 20
359.45319000000001
 30
0.0
 11
781.35699
 21
359.45319000000001
 31
0.0
  0
LINE
  5
AD3
  8
0
  6
CONTINUOUS
 62
     7
 10
800.85698999999988
 20
644.45319000000018
 30
0.0
 11
800.85698999999988
 21
347.45319000000001
 31
0.0
  0
LINE
  5
AD4
  8
0
  6
CONTINUOUS
 62
     7
 10
380.85699
 20
644.45319000000018
 30
0.0
 11
800.85698999999988
 21
644.45319000000018
 31
0.0
  0
LINE
  5
AD5
  8
0
  6
CONTINUOUS
 62
     7
 10
400.35699
 20
632.45319000000006
 30
0.0
 11
510.35699
 21
632.45319000000006
 31
0.0
  0
LINE
  5
AD6
  8
0
  6
CONTINUOUS
 62
     7
 10
400.35699
 20
632.45319000000006
 30
0.0
 11
400.35699
 21
536.45319000000006
 31
0.0
  0
LINE
  5
AD7
  8
0
  6
CONTINUOUS
 62
     7
 10
420.35699
 20
632.45319000000006
 30
0.0
 11
420.35699
 21
536.45319000000006
 31
0.0
  0
LINE
  5
AD8
  8
0
  6
CONTINUOUS
 62
     7
 10
400.35699
 20
624.45319000000006
 30
0.0
 11
510.35699
 21
624.45319000000006
 31
0.0
  0
LINE
  5
AD9
  8
0
  6
CONTINUOUS
 62
     7
 10
400.35699
 20
616.45318999999995
 30
0.0
 11
510.35699
 21
616.45318999999995
 31
0.0
  0
LINE
  5
ADA
  8
0
  6
CONTINUOUS
 62
     7
 10
400.35699
 20
608.45318999999995
 30
0.0
 11
510.35699
 21
608.45318999999995
 31
0.0
  0
LINE
  5
ADB
  8
0
  6
CONTINUOUS
 62
     7
 10
400.35699
 20
600.45318999999995
 30
0.0
 11
510.35699
 21
600.45318999999995
 31
0.0
  0
LINE
  5
ADC
  8
0
  6
CONTINUOUS
 62
     7
 10
420.35699
 20
576.45318999999995
 30
0.0
 11
510.35699
 21
576.45318999999995
 31
0.0
  0
LINE
  5
ADD
  8
0
  6
CONTINUOUS
 62
     7
 10
420.35699
 20
568.45318999999995
 30
0.0
 11
510.35699
 21
568.45318999999995
 31
0.0
  0
LINE
  5
ADE
  8
0
  6
CONTINUOUS
 62
     7
 10
400.35699
 20
560.45318999999995
 30
0.0
 11
510.35699
 21
560.45318999999995
 31
0.0
  0
LINE
  5
ADF
  8
0
  6
CONTINUOUS
 62
     7
 10
420.35699
 20
552.45318999999995
 30
0.0
 11
510.35699
 21
552.45318999999995
 31
0.0
  0
LINE
  5
AE0
  8
0
  6
CONTINUOUS
 62
     7
 10
420.35699
 20
544.45318999999995
 30
0.0
 11
510.35699
 21
544.45318999999995
 31
0.0
  0
LINE
  5
AE1
  8
0
  6
CONTINUOUS
 62
     7
 10
400.35699
 20
536.45319000000006
 30
0.0
 11
510.35699
 21
536.45319000000006
 31
0.0
  0
LINE
  5
AE2
  8
0
  6
CONTINUOUS
 62
     7
 10
400.35699
 20
632.45319000000006
 30
0.0
 11
400.35699
 21
536.45319000000006
 31
0.0
  0
LINE
  5
AE3
  8
0
  6
CONTINUOUS
 62
     7
 10
400.35699
 20
632.45319000000006
 30
0.0
 11
510.35699
 21
632.45319000000006
 31
0.0
  0
LINE
  5
AE4
  8
0
  6
CONTINUOUS
 62
     7
 10
510.35699
 20
632.45319000000006
 30
0.0
 11
510.35699
 21
536.45319000000006
 31
0.0
  0
LINE
  5
AE5
  8
0
  6
CONTINUOUS
 62
     7
 10
400.35699
 20
592.45318999999995
 30
0.0
 11
510.35699
 21
592.45318999999995
 31
0.0
  0
LINE
  5
AE6
  8
0
  6
CONTINUOUS
 62
     7
 10
400.35699
 20
584.45318999999995
 30
0.0
 11
510.35699
 21
584.45318999999995
 31
0.0
  0
LINE
  5
AE7
  8
0
  6
CONTINUOUS
 62
     7
 10
420.35699
 20
576.45318999999995
 30
0.0
 11
510.35699
 21
576.45318999999995
 31
0.0
  0
LINE
  5
AE8
  8
0
  6
CONTINUOUS
 62
     3
 10
638.42742999999984
 20
577.11364999999989
 30
0.0
 11
638.42742999999984
 21
587.11365000000001
 31
0.0
  0
LINE
  5
AE9
  8
0
  6
CONTINUOUS
 62
     3
 10
639.92742999999996
 20
577.11364999999989
 30
0.0
 11
639.92742999999996
 21
587.11365000000001
 31
0.0
  0
LINE
  5
AEA
  8
0
  6
CONTINUOUS
 62
     3
 10
637.62743999999975
 20
586.11364999999967
 30
0.0
 11
636.82745
 21
586.11364999999967
 31
0.0
  0
LINE
  5
AEB
  8
0
  6
CONTINUOUS
 62
     3
 10
640.72748000000001
 20
586.11364999999967
 30
0.0
 11
648.36743000000001
 21
586.11364999999967
 31
0.0
  0
LINE
  5
AEC
  8
0
  6
CONTINUOUS
 62
     3
 10
638.42742999999984
 20
586.11364999999967
 30
0.0
 11
639.92742999999996
 21
586.11364999999967
 31
0.0
  0
LINE
  5
AED
  8
0
  6
CONTINUOUS
 62
     7
 10
638.02746999999999
 20
586.11364999999967
 30
0.0
 11
637.62743999999975
 21
586.11364999999967
 31
0.0
  0
LINE
  5
AEE
  8
0
  6
CONTINUOUS
 62
     7
 10
640.32745
 20
586.11364999999967
 30
0.0
 11
640.72748000000001
 21
586.11364999999967
 31
0.0
  0
LINE
  5
AEF
  8
0
  6
CONTINUOUS
 62
     7
 10
598.7275400000002
 20
466.17397999999991
 30
0.0
 11
597.9510499999999
 21
463.27620999999988
 31
0.0
  0
LINE
  5
AF0
  8
0
  6
CONTINUOUS
 62
     7
 10
598.7275400000002
 20
466.17397999999991
 30
0.0
 11
599.50396999999975
 21
463.27617999999978
 31
0.0
  0
LINE
  5
AF1
  8
0
  6
CONTINUOUS
 62
     3
 10
634.42742999999984
 20
581.43011000000001
 30
0.0
 11
634.42742999999984
 21
587.11365000000001
 31
0.0
  0
LINE
  5
AF2
  8
0
  6
CONTINUOUS
 62
     3
 10
628.92742999999984
 20
577.11364999999989
 30
0.0
 11
628.92742999999984
 21
587.11365000000001
 31
0.0
  0
LINE
  5
AF3
  8
0
  6
CONTINUOUS
 62
     3
 10
633.62743999999975
 20
586.11364999999967
 30
0.0
 11
629.72748000000001
 21
586.11364999999967
 31
0.0
  0
LINE
  5
AF4
  8
0
  6
CONTINUOUS
 62
     3
 10
628.92742999999984
 20
586.11364999999967
 30
0.0
 11
620.51489000000004
 21
586.11364999999967
 31
0.0
  0
LINE
  5
AF5
  8
0
  6
CONTINUOUS
 62
     7
 10
634.02746999999999
 20
586.11364999999967
 30
0.0
 11
633.62743999999975
 21
586.11364999999967
 31
0.0
  0
LINE
  5
AF6
  8
0
  6
CONTINUOUS
 62
     7
 10
629.32744999999977
 20
586.11364999999967
 30
0.0
 11
629.72748000000001
 21
586.11364999999967
 31
0.0
  0
LINE
  5
AF7
  8
0
  6
CONTINUOUS
 62
     3
 10
563.72742000000017
 20
541.41314999999986
 30
0.0
 11
563.72742000000017
 21
551.30633999999998
 31
0.0
  0
LINE
  5
AF8
  8
0
  6
CONTINUOUS
 62
     3
 10
547.15246999999977
 20
541.41314999999986
 30
0.0
 11
547.15246999999977
 21
551.30633999999998
 31
0.0
  0
LINE
  5
AF9
  8
0
  6
CONTINUOUS
 62
     3
 10
547.95245
 20
550.30634000000009
 30
0.0
 11
562.92742999999984
 21
550.30634000000009
 31
0.0
  0
LINE
  5
AFA
  8
0
  6
CONTINUOUS
 62
     3
 10
563.72742000000017
 20
550.30634000000009
 30
0.0
 11
572.25756999999999
 21
550.30634000000009
 31
0.0
  0
LINE
  5
AFB
  8
0
  6
CONTINUOUS
 62
     7
 10
547.55242999999996
 20
550.30634000000009
 30
0.0
 11
547.95245
 21
550.30634000000009
 31
0.0
  0
LINE
  5
AFC
  8
0
  6
CONTINUOUS
 62
     7
 10
563.32744999999966
 20
550.30634000000009
 30
0.0
 11
562.92742999999984
 21
550.30634000000009
 31
0.0
  0
LINE
  5
AFD
  8
0
  6
CONTINUOUS
 62
     7
 10
552.87243999999976
 20
533.91363999999999
 30
0.0
 11
552.87243999999976
 21
430.52364999999992
 31
0.0
  0
LINE
  5
AFE
  8
0
  6
CONTINUOUS
 62
     7
 10
560.15246999999965
 20
532.54816000000005
 30
0.0
 11
560.15246999999965
 21
430.52364999999992
 31
0.0
  0
CIRCLE
  5
AFF
  8
0
  6
CONTINUOUS
 62
     7
 10
556.15246999999965
 20
566.11365000000001
 30
0.0
 40
1.6000000000000001
  0
CIRCLE
  5
B00
  8
0
  6
CONTINUOUS
 62
     7
 10
556.15246999999965
 20
566.11365000000001
 30
0.0
 40
3.099999899999998
  0
CIRCLE
  5
B01
  8
0
  6
CONTINUOUS
 62
     7
 10
556.15246999999965
 20
440.52364999999992
 30
0.0
 40
3.099999899999998
  0
CIRCLE
  5
B02
  8
0
  6
CONTINUOUS
 62
     7
 10
556.15246999999965
 20
440.52364999999992
 30
0.0
 40
1.6000000000000001
  0
CIRCLE
  5
B03
  8
0
  6
CONTINUOUS
 62
     7
 10
556.15246999999965
 20
503.31862999999993
 30
0.0
 40
3.099999899999998
  0
CIRCLE
  5
B04
  8
0
  6
CONTINUOUS
 62
     7
 10
556.15246999999965
 20
503.31862999999993
 30
0.0
 40
1.6000000000000001
  0
CIRCLE
  5
B05
  8
0
  6
CONTINUOUS
 62
     7
 10
538.15246999999988
 20
503.31862999999993
 30
0.0
 40
3.099999899999998
  0
CIRCLE
  5
B06
  8
0
  6
CONTINUOUS
 62
     7
 10
538.15246999999988
 20
503.31862999999993
 30
0.0
 40
1.6000000000000001
  0
CIRCLE
  5
B07
  8
0
  6
CONTINUOUS
 62
     7
 10
538.15246999999988
 20
440.52364999999992
 30
0.0
 40
3.099999899999998
  0
CIRCLE
  5
B08
  8
0
  6
CONTINUOUS
 62
     7
 10
538.15246999999988
 20
440.52364999999992
 30
0.0
 40
1.6000000000000001
  0
CIRCLE
  5
B09
  8
0
  6
CONTINUOUS
 62
     7
 10
538.15246999999988
 20
566.11365000000001
 30
0.0
 40
1.6000000000000001
  0
CIRCLE
  5
B0A
  8
0
  6
CONTINUOUS
 62
     7
 10
538.15246999999988
 20
566.11365000000001
 30
0.0
 40
3.099999899999998
  0
CIRCLE
  5
B0B
  8
0
  6
CONTINUOUS
 62
     7
 10
634.42742999999984
 20
536.23464999999999
 30
0.0
 40
3.2175063999999991
  0
CIRCLE
  5
B0C
  8
0
  6
CONTINUOUS
 62
     7
 10
634.42742999999984
 20
536.23464999999999
 30
0.0
 40
3.9325027000000001
  0
TEXT
  5
B0D
  8
0
  6
CONTINUOUS
 62
     3
 10
631.76076
 20
597.61361999999997
 30
0.0
 40
3.2000000000000002
  1
11
 41
1.5
  0
TEXT
  5
B0E
  8
0
  6
CONTINUOUS
 62
     3
 10
597.22714000000019
 20
439.51107999999999
 30
0.0
 40
3.2000000000000002
  1
ストローク２１
 50
90.000003000000007
 41
0.95923584
  0
TEXT
  5
B0F
  8
0
  6
CONTINUOUS
 62
     3
 10
544.18179999999995
 20
396.02365999999989
 30
0.0
 40
3.2000000000000002
  1
%%C８
 41
0.9361344700000001
  0
TEXT
  5
B10
  8
0
  6
CONTINUOUS
 62
     3
 10
587.22744
 20
501.10379999999998
 30
0.0
 40
3.2000000000000002
  1
L
 50
90.000003000000007
  0
TEXT
  5
B11
  8
0
  6
CONTINUOUS
 62
     3
 10
535.08579999999995
 20
587.61361999999986
 30
0.0
 40
3.2000000000000002
  1
4
  0
TEXT
  5
B12
  8
0
  6
CONTINUOUS
 62
     3
 10
557.08579999999995
 20
587.61361999999986
 30
0.0
 40
3.2000000000000002
  1
4
  0
TEXT
  5
B13
  8
0
  6
CONTINUOUS
 62
     3
 10
544.48580000000004
 20
587.61361999999986
 30
0.0
 40
3.2000000000000002
  1
18
 41
1.25
  0
TEXT
  5
B14
  8
0
  6
CONTINUOUS
 62
     3
 10
544.48580000000004
 20
597.61392999999975
 30
0.0
 40
3.2000000000000002
  1
26
  0
TEXT
  5
B15
  8
0
  6
CONTINUOUS
 62
     3
 10
577.22743999999966
 20
533.64945999999986
 30
0.0
 40
3.2000000000000002
  1
a
 50
90.000003000000007
  0
TEXT
  5
B16
  8
0
  6
CONTINUOUS
 62
     3
 10
577.22743999999966
 20
471.04606999999987
 30
0.0
 40
3.2000000000000002
  1
a
 50
90.000003000000007
  0
TEXT
  5
B17
  8
0
  6
CONTINUOUS
 62
     3
 10
577.22743999999966
 20
433.04856999999993
 30
0.0
 40
3.2000000000000002
  1
10
 50
90.000003000000007
 41
1.363636399999999
  0
TEXT
  5
B18
  8
0
  6
CONTINUOUS
 62
     3
 10
577.22743999999966
 20
568.44698000000005
 30
0.0
 40
3.2000000000000002
  1
10
 50
90.000003000000007
 41
1.363636399999999
  0
TEXT
  5
B19
  8
0
  6
CONTINUOUS
 62
     2
 10
704.98521000000005
 20
384.06659999999999
 30
0.0
 40
3.2000000000000002
  1
ＤＬ－１５１－３
 41
0.61
  0
TEXT
  5
B1A
  8
0
  6
CONTINUOUS
 62
     2
 10
704.98521000000005
 20
394.06659999999999
 30
0.0
 40
3.2000000000000002
  1
ＤＬ－１５１－２
 41
0.61
  0
TEXT
  5
B1B
  8
0
  6
CONTINUOUS
 62
     2
 10
704.98521000000005
 20
404.06659999999988
 30
0.0
 40
3.2000000000000002
  1
ＤＬ－１５１－１
 41
0.61
  0
TEXT
  5
B1C
  8
0
  6
CONTINUOUS
 62
     2
 10
714.58519000000001
 20
414.06659999999999
 30
0.0
 40
3.2000000000000002
  1
品番
 41
0.61
  0
TEXT
  5
B1D
  8
0
  6
CONTINUOUS
 62
     2
 10
735.98517000000004
 20
384.06659999999999
 30
0.0
 40
3.2000000000000002
  1
３００
 41
0.60999997
  0
TEXT
  5
B1E
  8
0
  6
CONTINUOUS
 62
     2
 10
735.98517000000004
 20
394.06659999999999
 30
0.0
 40
3.2000000000000002
  1
２４０
 41
0.60999997
  0
TEXT
  5
B1F
  8
0
  6
CONTINUOUS
 62
     2
 10
735.98517000000004
 20
404.06659999999988
 30
0.0
 40
3.2000000000000002
  1
１５０
 41
0.60999997
  0
TEXT
  5
B20
  8
0
  6
CONTINUOUS
 62
     2
 10
739.18516999999974
 20
414.06659999999999
 30
0.0
 40
3.2000000000000002
  1
Ｌ
 41
0.6100000100000002
  0
TEXT
  5
B21
  8
0
  6
CONTINUOUS
 62
     2
 10
751.98517000000004
 20
394.06659999999999
 30
0.0
 40
3.2000000000000002
  1
１１０
 41
0.60999997
  0
TEXT
  5
B22
  8
0
  6
CONTINUOUS
 62
     2
 10
751.98517000000004
 20
384.06659999999999
 30
0.0
 40
3.2000000000000002
  1
１４０
 41
0.60999997
  0
TEXT
  5
B23
  8
0
  6
CONTINUOUS
 62
     2
 10
753.5851899999999
 20
404.06659999999988
 30
0.0
 40
3.2000000000000002
  1
６５
 41
0.61
  0
TEXT
  5
B24
  8
0
  6
CONTINUOUS
 62
     2
 10
755.18516999999974
 20
414.06659999999999
 30
0.0
 40
3.2000000000000002
  1
ａ
 41
0.6100000100000002
  0
TEXT
  5
B25
  8
0
  6
CONTINUOUS
 62
     3
 10
562.27542000000005
 20
597.61392999999975
 30
0.0
 40
3.2000000000000002
  1
６－%%C３．２×%%C６．２サラ
 41
0.8991596299999999
  0
TEXT
  5
B26
  8
0
  6
CONTINUOUS
 62
     2
 10
380.85701
 20
347.45319000000001
 30
0.0
 40
2.5
  1
!GENTITLE-LL
 41
1.09375
  0
TEXT
  5
B27
  8
0
  6
CONTINUOUS
 62
     2
 10
781.35700999999983
 20
632.45319000000006
 30
0.0
 40
2.5
  1
!GENTITLE-RU
 41
1.09375
  0
TEXT
  5
B28
  8
0
  6
CONTINUOUS
 62
     2
 10
400.35701999999992
 20
632.45319000000006
 30
0.0
 40
2.5
  1
!GENTITLE-INSERT
 41
1.0930233
  0
TEXT
  5
B29
  8
0
  6
CONTINUOUS
 62
     2
 10
800.85699999999974
 20
644.45319000000018
 30
0.0
 40
2.5
  1
!GENTITLE-MAX
 41
1.0857143
  0
TEXT
  5
B2A
  8
0
  6
CONTINUOUS
 62
     7
 10
406.58551
 20
628.45320000000004
 30
0.0
 40
3.2000000000000002
  1
品　名
 41
0.60999997
  0
TEXT
  5
B2B
  8
0
  6
CONTINUOUS
 62
     7
 10
406.58551
 20
620.45320000000004
 30
0.0
 40
3.2000000000000002
  1
品　番
 41
0.60999997
  0
TEXT
  5
B2C
  8
0
  6
CONTINUOUS
 62
     7
 10
406.58551
 20
612.45320000000004
 30
0.0
 40
3.2000000000000002
  1
材　質
 41
0.60999997
  0
TEXT
  5
B2D
  8
0
  6
CONTINUOUS
 62
     7
 10
406.58551
 20
604.45320000000004
 30
0.0
 40
3.2000000000000002
  1
仕上げ
 41
0.60999997
  0
TEXT
  5
B2E
  8
0
  6
CONTINUOUS
 62
     7
 10
403.38548999999989
 20
580.45320000000004
 30
0.0
 40
3.2000000000000002
  1
セットビス
 41
0.6099999900000001
  0
TEXT
  5
B2F
  8
0
  6
CONTINUOUS
 62
     7
 10
408.18549999999999
 20
556.45320000000004
 30
0.0
 40
3.2000000000000002
  1
備考
 41
0.61
  0
TEXT
  5
B30
  8
0
  6
CONTINUOUS
 62
     7
 10
406.58551
 20
596.45320000000004
 30
0.0
 40
3.2000000000000002
  1
定　尺
 41
0.60999997
  0
TEXT
  5
B31
  8
0
  6
CONTINUOUS
 62
     7
 10
404.9854899999998
 20
588.45320000000004
 30
0.0
 40
3.2000000000000002
  1
左右勝手
 41
0.60999998
  0
TEXT
  5
B32
  8
0
  6
CONTINUOUS
 62
     7
 10
423.78550999999987
 20
626.85321999999996
 30
0.0
 40
3.2000000000000002
  1
アルミ落し
 41
0.74999999
  0
TEXT
  5
B33
  8
0
  6
CONTINUOUS
 62
     7
 10
423.78552000000002
 20
618.85321999999996
 30
0.0
 40
3.2000000000000002
  1
ＤＬ－１５１
 41
0.75
  0
TEXT
  5
B34
  8
0
  6
CONTINUOUS
 62
     7
 10
423.78550999999987
 20
610.85321999999985
 30
0.0
 40
3.2000000000000002
  1
アルミ
 41
0.7499999600000004
  0
TEXT
  5
B35
  8
0
  6
CONTINUOUS
 62
     7
 10
423.78550999999987
 20
602.85321999999985
 30
0.0
 40
3.2000000000000002
  1
アルマイト
 41
0.74999999
  0
TEXT
  5
B36
  8
0
  6
CONTINUOUS
 62
     7
 10
423.78548999999998
 20
586.85321999999985
 30
0.0
 40
3.2000000000000002
  1
無し
 41
0.74999999
  0
TEXT
  5
B37
  8
0
  6
CONTINUOUS
 62
     3
 10
640.68078000000003
 20
587.61361999999986
 30
0.0
 40
3.2000000000000002
  1
1.8
 41
1.6000000000000001
  0
TEXT
  5
B38
  8
0
  6
CONTINUOUS
 62
     3
 10
620.05449999999985
 20
587.61361999999986
 30
0.0
 40
3.2000000000000002
  1
5.5
 41
1.3333333000000001
  0
TEXT
  5
B39
  8
0
  6
CONTINUOUS
 62
     3
 10
566.65089999999975
 20
551.80631000000005
 30
0.0
 40
3.2000000000000002
  1
17
 41
1.25
  0
INSERT
  5
B3A
  8
0
  6
CONTINUOUS
 62
     7
  2
KOZU0001
 10
628.92742999999984
 20
596.11365000000001
 30
0.0
  0
INSERT
  5
B3B
  8
0
  6
CONTINUOUS
 62
     7
  2
KOZU0002
 10
639.92742999999996
 20
596.11365000000001
 30
0.0
  0
INSERT
  5
B3C
  8
0
  6
CONTINUOUS
 62
     7
  2
KOZU0003
 10
598.72742000000005
 20
409.52364999999992
 30
0.0
  0
INSERT
  5
B3D
  8
0
  6
CONTINUOUS
 62
     7
  2
KOZU0004
 10
598.72742000000005
 20
409.52364999999992
 30
0.0
  0
INSERT
  5
B3E
  8
0
  6
CONTINUOUS
 62
     7
  2
KOZU0005
 10
543.15246999999965
 20
394.52364999999998
 30
0.0
  0
INSERT
  5
B3F
  8
0
  6
CONTINUOUS
 62
     7
  2
KOZU0006
 10
551.15246999999977
 20
394.52364999999998
 30
0.0
  0
INSERT
  5
B40
  8
0
  6
CONTINUOUS
 62
     7
  2
KOZU0007
 10
588.72742000000017
 20
576.11365000000001
 30
0.0
  0
INSERT
  5
B41
  8
0
  6
CONTINUOUS
 62
     7
  2
KOZU0008
 10
588.72742000000017
 20
430.52364999999992
 30
0.0
  0
INSERT
  5
B42
  8
0
  6
CONTINUOUS
 62
     7
  2
KOZU0009
 10
538.15246999999988
 20
586.11364999999967
 30
0.0
  0
INSERT
  5
B43
  8
0
  6
CONTINUOUS
 62
     7
  2
KOZU0010
 10
534.15246999999988
 20
586.11364999999967
 30
0.0
  0
INSERT
  5
B44
  8
0
  6
CONTINUOUS
 62
     7
  2
KOZU0011
 10
560.15246999999965
 20
586.11364999999967
 30
0.0
  0
INSERT
  5
B45
  8
0
  6
CONTINUOUS
 62
     7
  2
KOZU0012
 10
556.15246999999965
 20
586.11364999999967
 30
0.0
  0
INSERT
  5
B46
  8
0
  6
CONTINUOUS
 62
     7
  2
KOZU0013
 10
556.15246999999965
 20
586.11364999999967
 30
0.0
  0
INSERT
  5
B47
  8
0
  6
CONTINUOUS
 62
     7
  2
KOZU0014
 10
538.15246999999988
 20
586.11364999999967
 30
0.0
  0
INSERT
  5
B48
  8
0
  6
CONTINUOUS
 62
     7
  2
KOZU0015
 10
534.15246999999988
 20
596.11365000000001
 30
0.0
  0
INSERT
  5
B49
  8
0
  6
CONTINUOUS
 62
     7
  2
KOZU0016
 10
560.15246999999965
 20
596.11365000000001
 30
0.0
  0
INSERT
  5
B4A
  8
0
  6
CONTINUOUS
 62
     7
  2
KOZU0017
 10
578.72742000000005
 20
566.11365000000001
 30
0.0
  0
INSERT
  5
B4B
  8
0
  6
CONTINUOUS
 62
     7
  2
KOZU0018
 10
578.72742000000005
 20
503.31862999999993
 30
0.0
  0
INSERT
  5
B4C
  8
0
  6
CONTINUOUS
 62
     7
  2
KOZU0019
 10
578.72742000000005
 20
440.52364999999992
 30
0.0
  0
INSERT
  5
B4D
  8
0
  6
CONTINUOUS
 62
     7
  2
KOZU0020
 10
578.72742000000005
 20
503.31862999999993
 30
0.0
  0
INSERT
  5
B4E
  8
0
  6
CONTINUOUS
 62
     7
  2
KOZU0021
 10
578.72742000000005
 20
440.52364999999992
 30
0.0
  0
INSERT
  5
B4F
  8
0
  6
CONTINUOUS
 62
     7
  2
KOZU0022
 10
578.72742000000005
 20
430.52364999999992
 30
0.0
  0
INSERT
  5
B50
  8
0
  6
CONTINUOUS
 62
     7
  2
KOZU0023
 10
578.72742000000005
 20
576.11365000000001
 30
0.0
  0
INSERT
  5
B51
  8
0
  6
CONTINUOUS
 62
     7
  2
KOZU0024
 10
578.72742000000005
 20
566.11365000000001
 30
0.0
  0
INSERT
  5
B52
  8
0
  6
CONTINUOUS
 62
     7
  2
KOZU0025
 10
555.16045999999994
 20
563.17664000000002
 30
0.0
  0
INSERT
  5
B53
  8
0
  6
CONTINUOUS
 62
     7
  2
KOZU0026
 10
557.14440999999988
 20
569.05065999999988
 30
0.0
  0
SOLID
  5
B54
  8
0
  6
CONTINUOUS
 62
     3
 10
556.87310999999988
 20
567.96509000000003
 30
0.0
 11
557.03588999999999
 21
567.71680000000003
 31
0.0
 12
557.04187000000002
 22
567.67724999999984
 32
0.0
 13
557.04187000000002
 23
567.67724999999984
 33
0.0
  0
SOLID
  5
B55
  8
0
  6
CONTINUOUS
 62
     3
 10
557.04187000000002
 20
567.67724999999984
 30
0.0
 11
556.58411000000001
 21
568.03283999999985
 31
0.0
 12
556.87310999999988
 22
567.96509000000003
 32
0.0
 13
556.87310999999988
 23
567.96509000000003
 33
0.0
  0
SOLID
  5
B56
  8
0
  6
CONTINUOUS
 62
     3
 10
556.58411000000001
 20
568.03283999999985
 30
0.0
 11
557.04187000000002
 21
567.67724999999984
 31
0.0
 12
557.04387999999994
 22
567.63733000000002
 32
0.0
 13
557.04387999999994
 23
567.63733000000002
 33
0.0
  0
SOLID
  5
B57
  8
0
  6
CONTINUOUS
 62
     3
 10
557.04387999999994
 20
567.63733000000002
 30
0.0
 11
556.32793999999978
 21
567.88269000000003
 31
0.0
 12
556.58411000000001
 22
568.03283999999985
 32
0.0
 13
556.58411000000001
 23
568.03283999999985
 33
0.0
  0
SOLID
  5
B58
  8
0
  6
CONTINUOUS
 62
     3
 10
556.32793999999978
 20
567.88269000000003
 30
0.0
 11
557.04387999999994
 21
567.63733000000002
 31
0.0
 12
556.93364999999994
 22
567.36162999999988
 32
0.0
 13
556.93364999999994
 23
567.36162999999988
 33
0.0
  0
SOLID
  5
B59
  8
0
  6
CONTINUOUS
 62
     3
 10
556.93364999999994
 20
567.36162999999988
 30
0.0
 11
556.24584999999979
 21
567.59735000000001
 31
0.0
 12
556.32793999999978
 22
567.88269000000003
 32
0.0
 13
556.32793999999978
 23
567.88269000000003
 33
0.0
  0
SOLID
  5
B5A
  8
0
  6
CONTINUOUS
 62
     3
 10
556.24584999999979
 20
567.59735000000001
 30
0.0
 11
556.93364999999994
 21
567.36162999999988
 31
0.0
 12
556.66387999999995
 22
567.23778999999979
 32
0.0
 13
556.66387999999995
 23
567.23778999999979
 33
0.0
  0
SOLID
  5
B5B
  8
0
  6
CONTINUOUS
 62
     3
 10
556.66387999999995
 20
567.23778999999979
 30
0.0
 11
556.38300000000004
 21
567.33405000000005
 31
0.0
 12
556.24584999999979
 22
567.59735000000001
 32
0.0
 13
556.24584999999979
 23
567.59735000000001
 33
0.0
  0
SOLID
  5
B5C
  8
0
  6
CONTINUOUS
 62
     3
 10
555.84582999999986
 20
564.92487000000017
 30
0.0
 11
556.00860999999986
 21
564.67656999999986
 31
0.0
 12
556.01459
 22
564.63701999999978
 32
0.0
 13
556.01459
 23
564.63701999999978
 33
0.0
  0
SOLID
  5
B5D
  8
0
  6
CONTINUOUS
 62
     3
 10
556.01459
 20
564.63701999999978
 30
0.0
 11
555.55682000000002
 21
564.99261000000001
 31
0.0
 12
555.84582999999986
 22
564.92487000000017
 32
0.0
 13
555.84582999999986
 23
564.92487000000017
 33
0.0
  0
SOLID
  5
B5E
  8
0
  6
CONTINUOUS
 62
     3
 10
555.55682000000002
 20
564.99261000000001
 30
0.0
 11
556.01459
 21
564.63701999999978
 31
0.0
 12
556.01660000000004
 22
564.5971099999997
 32
0.0
 13
556.01660000000004
 23
564.5971099999997
 33
0.0
  0
SOLID
  5
B5F
  8
0
  6
CONTINUOUS
 62
     3
 10
556.01660000000004
 20
564.5971099999997
 30
0.0
 11
555.30065999999977
 21
564.84247000000005
 31
0.0
 12
555.55682000000002
 22
564.99261000000001
 32
0.0
 13
555.55682000000002
 23
564.99261000000001
 33
0.0
  0
SOLID
  5
B60
  8
0
  6
CONTINUOUS
 62
     3
 10
555.30065999999977
 20
564.84247000000005
 30
0.0
 11
556.01660000000004
 21
564.5971099999997
 31
0.0
 12
555.90637000000004
 22
564.32141000000001
 32
0.0
 13
555.90637000000004
 23
564.32141000000001
 33
0.0
  0
SOLID
  5
B61
  8
0
  6
CONTINUOUS
 62
     3
 10
555.90637000000004
 20
564.32141000000001
 30
0.0
 11
555.21856999999989
 21
564.55713000000003
 31
0.0
 12
555.30065999999977
 22
564.84247000000005
 32
0.0
 13
555.30065999999977
 23
564.84247000000005
 33
0.0
  0
SOLID
  5
B62
  8
0
  6
CONTINUOUS
 62
     3
 10
555.21856999999989
 20
564.55713000000003
 30
0.0
 11
555.90637000000004
 21
564.32141000000001
 31
0.0
 12
555.63660000000004
 22
564.19757000000004
 32
0.0
 13
555.63660000000004
 23
564.19757000000004
 33
0.0
  0
SOLID
  5
B63
  8
0
  6
CONTINUOUS
 62
     3
 10
555.63660000000004
 20
564.19757000000004
 30
0.0
 11
555.35570999999993
 21
564.29381999999976
 31
0.0
 12
555.21856999999989
 22
564.55713000000003
 32
0.0
 13
555.21856999999989
 23
564.55713000000003
 33
0.0
  0
INSERT
  5
B64
  8
0
  6
CONTINUOUS
 62
     7
  2
KOZU0027
 10
638.42742999999984
 20
586.11364999999967
 30
0.0
  0
INSERT
  5
B65
  8
0
  6
CONTINUOUS
 62
     7
  2
KOZU0028
 10
639.92742999999996
 20
586.11364999999967
 30
0.0
  0
INSERT
  5
B66
  8
0
  6
CONTINUOUS
 62
     7
  2
KOZU0029
 10
634.42742999999984
 20
586.11364999999967
 30
0.0
  0
INSERT
  5
B67
  8
0
  6
CONTINUOUS
 62
     7
  2
KOZU0030
 10
628.92742999999984
 20
586.11364999999967
 30
0.0
  0
INSERT
  5
B68
  8
0
  6
CONTINUOUS
 62
     7
  2
KOZU0031
 10
547.15246999999977
 20
550.30634000000009
 30
0.0
  0
INSERT
  5
B69
  8
0
  6
CONTINUOUS
 62
     7
  2
KOZU0032
 10
563.72742000000017
 20
550.30634000000009
 30
0.0
  0
LINE
  5
B6B
  8
0
  6
CONTINUOUS
 10
630.42742999999984
 20
538.55565999999999
 30
0.0
 11
631.25292372887554
 21
538.55565999999999
 31
0.0
  0
LINE
  5
B6C
  8
0
  6
CONTINUOUS
 10
630.42742999999984
 20
533.91363999999999
 30
0.0
 11
631.25292372887554
 21
533.91363999999999
 31
0.0
  0
LINE
  5
B6D
  8
0
  6
CONTINUOUS
 10
637.60193627112415
 20
538.55565999999999
 30
0.0
 11
638.42742999999984
 21
538.55565999999999
 31
0.0
  0
LINE
  5
B6E
  8
0
  6
CONTINUOUS
 10
637.60193627112415
 20
533.9136400000001
 30
0.0
 11
638.42742999999984
 21
533.9136400000001
 31
0.0
  0
ENDSEC
  0
EOF
