  0
SECTION
  2
HEADER
  9
$ACADVER
  1
AC1009
  9
$INSBASE
 10
0.0
 20
0.0
 30
0.0
  9
$EXTMIN
 10
0.0
 20
0.0
 30
0.0
  9
$EXTMAX
 10
845.44333708333238
 20
605.58275999999978
 30
0.0
  9
$LIMMIN
 10
393.77667000000002
 20
306.08276000000001
  9
$LIMMAX
 10
813.77666999999985
 20
603.08276000000001
  9
$ORTHOMODE
 70
     0
  9
$REGENMODE
 70
     1
  9
$FILLMODE
 70
     1
  9
$QTEXTMODE
 70
     0
  9
$MIRRTEXT
 70
     1
  9
$DRAGMODE
 70
     2
  9
$LTSCALE
 40
1.0
  9
$OSMODE
 70
    37
  9
$ATTMODE
 70
     1
  9
$TEXTSIZE
 40
0.2
  9
$TRACEWID
 40
0.05
  9
$TEXTSTYLE
  7
STANDARD
  9
$CLAYER
  8
0
  9
$CELTYPE
  6
CONTINUOUS
  9
$CECOLOR
 62
   256
  9
$DIMSCALE
 40
1.0
  9
$DIMASZ
 40
1.0
  9
$DIMEXO
 40
2.54
  9
$DIMDLI
 40
0.38
  9
$DIMRND
 40
0.0
  9
$DIMDLE
 40
0.0
  9
$DIMEXE
 40
2.54
  9
$DIMTP
 40
0.0
  9
$DIMTM
 40
0.0
  9
$DIMTXT
 40
3.2000000000000002
  9
$DIMCEN
 40
0.09
  9
$DIMTSZ
 40
0.0
  9
$DIMTOL
 70
     0
  9
$DIMLIM
 70
     0
  9
$DIMTIH
 70
     0
  9
$DIMTOH
 70
     0
  9
$DIMSE1
 70
     0
  9
$DIMSE2
 70
     0
  9
$DIMTAD
 70
     1
  9
$DIMZIN
 70
     0
  9
$DIMBLK
  1

  9
$DIMASO
 70
     1
  9
$DIMSHO
 70
     0
  9
$DIMPOST
  1

  9
$DIMAPOST
  1

  9
$DIMALT
 70
     0
  9
$DIMALTD
 70
     2
  9
$DIMALTF
 40
25.399999999999999
  9
$DIMLFAC
 40
1.0
  9
$DIMTOFL
 70
     0
  9
$DIMTVP
 40
1.0
  9
$DIMTIX
 70
     0
  9
$DIMSOXD
 70
     0
  9
$DIMSAH
 70
     1
  9
$DIMBLK1
  1

  9
$DIMBLK2
  1

  9
$DIMSTYLE
  2
STANDARD
  9
$DIMCLRD
 70
     0
  9
$DIMCLRE
 70
     0
  9
$DIMCLRT
 70
     0
  9
$DIMTFAC
 40
1.0
  9
$DIMGAP
 40
1.6000000000000001
  9
$LUNITS
 70
     2
  9
$LUPREC
 70
     4
  9
$SKETCHINC
 40
0.1
  9
$FILLETRAD
 40
0.0
  9
$AUNITS
 70
     0
  9
$AUPREC
 70
     0
  9
$MENU
  1
.
  9
$ELEVATION
 40
0.0
  9
$PELEVATION
 40
0.0
  9
$THICKNESS
 40
0.0
  9
$LIMCHECK
 70
     0
  9
$BLIPMODE
 70
     0
  9
$CHAMFERA
 40
0.0
  9
$CHAMFERB
 40
0.0
  9
$SKPOLY
 70
     0
  9
$TDCREATE
 40
2452809.728518391
  9
$TDUPDATE
 40
2452811.6465518512
  9
$TDINDWG
 40
0.0071759491
  9
$TDUSRTIMER
 40
0.0071754861
  9
$USRTIMER
 70
     1
  9
$ANGBASE
 50
0.0
  9
$ANGDIR
 70
     0
  9
$PDMODE
 70
     0
  9
$PDSIZE
 40
0.0
  9
$PLINEWID
 40
0.0
  9
$COORDS
 70
     1
  9
$SPLFRAME
 70
     0
  9
$SPLINETYPE
 70
     6
  9
$SPLINESEGS
 70
     8
  9
$ATTDIA
 70
     0
  9
$ATTREQ
 70
     1
  9
$HANDLING
 70
 22529
  9
$HANDSEED
  5
7E5
  9
$SURFTAB1
 70
     6
  9
$SURFTAB2
 70
     6
  9
$SURFTYPE
 70
     6
  9
$SURFU
 70
     6
  9
$SURFV
 70
     6
  9
$UCSNAME
  2

  9
$UCSORG
 10
0.0
 20
0.0
 30
0.0
  9
$UCSXDIR
 10
1.0
 20
0.0
 30
0.0
  9
$UCSYDIR
 10
0.0
 20
1.0
 30
0.0
  9
$PUCSNAME
  2

  9
$PUCSORG
 10
0.0
 20
0.0
 30
0.0
  9
$PUCSXDIR
 10
1.0
 20
0.0
 30
0.0
  9
$PUCSYDIR
 10
0.0
 20
1.0
 30
0.0
  9
$USERI1
 70
     0
  9
$USERI2
 70
     0
  9
$USERI3
 70
     0
  9
$USERI4
 70
     0
  9
$USERI5
 70
     0
  9
$USERR1
 40
0.0
  9
$USERR2
 40
0.0
  9
$USERR3
 40
0.0
  9
$USERR4
 40
0.0
  9
$USERR5
 40
0.0
  9
$WORLDVIEW
 70
     1
  9
$SHADEDGE
 70
     3
  9
$SHADEDIF
 70
    70
  9
$TILEMODE
 70
     1
  9
$MAXACTVP
 70
    64
  9
$PLIMCHECK
 70
     0
  9
$PEXTMIN
 10
1.0000000000000000E+020
 20
1.0000000000000000E+020
 30
1.0000000000000000E+020
  9
$PEXTMAX
 10
-1.0000000000000000E+020
 20
-1.0000000000000000E+020
 30
-1.0000000000000000E+020
  9
$PLIMMIN
 10
393.77667000000002
 20
306.08276000000001
  9
$PLIMMAX
 10
813.77666999999985
 20
603.08276000000001
  9
$UNITMODE
 70
     0
  9
$VISRETAIN
 70
     1
  9
$PLINEGEN
 70
     0
  9
$PSLTSCALE
 70
     1
  0
ENDSEC
  0
SECTION
  2
TABLES
  0
TABLE
  2
VPORT
 70
     2
  0
VPORT
  2
*ACTIVE
 70
     0
 10
0.0
 20
0.0
 11
1.0
 21
1.0
 12
664.80767450314136
 22
446.48805966193208
 13
0.0
 23
0.0
 14
1.0
 24
1.0
 15
0.0
 25
0.0
 16
0.0
 26
0.0
 36
1.0
 17
0.0
 27
0.0
 37
0.0
 40
33.815849381514219
 41
1.5139593908629441
 42
50.0
 43
0.0
 44
0.0
 50
0.0
 51
0.0
 71
     0
 72
   100
 73
     1
 74
     1
 75
     0
 76
     0
 77
     0
 78
     0
  0
ENDTAB
  0
TABLE
  2
LTYPE
 70
     6
  0
LTYPE
  2
CONTINUOUS
 70
     0
  3
Solid line
 72
    65
 73
     0
 40
0.0
  0
LTYPE
  2
DASHED
 70
     0
  3
__ __ __ __ __ __ __ __ __ __ __ __ __ __ __
 72
    65
 73
     2
 40
3.5
 49
2.0
 49
-1.5
  0
LTYPE
  2
CENTER
 70
     0
  3
____ _ ____ _ ____ _ ____ _ ____ _ ____ _ ____
 72
    65
 73
     4
 40
17.5
 49
13.0
 49
-1.5
 49
1.5
 49
-1.5
  0
LTYPE
  2
PHANTOM
 70
     0
  3
_____ _ _ _____ _ _ _____ _ _ _____ _ _ ____  
 72
    65
 73
     6
 40
15.5
 49
8.0
 49
-1.5
 49
1.5
 49
-1.5
 49
1.5
 49
-1.5
  0
LTYPE
  2
DOT
 70
     0
  3
. . . . . . . . . . . . . . . . . . . . . . . .
 72
    65
 73
     2
 40
0.25
 49
0.0
 49
-0.25
  0
LTYPE
  2
HIDDEN
 70
     0
  3
__ __ __ __ __ __ __ __ __ __ __ __ __ __ __
 72
    65
 73
     2
 40
3.5
 49
2.0
 49
-1.5
  0
ENDTAB
  0
TABLE
  2
LAYER
 70
     1
  0
LAYER
  2
0
 70
     0
 62
     7
  6
CONTINUOUS
  0
ENDTAB
  0
TABLE
  2
STYLE
 70
     1
  0
STYLE
  2
STANDARD
 70
     0
 40
0.0
 41
1.0
 50
0.0
 71
     0
 42
0.2
  3
txt
  4
BIGFONT
  0
ENDTAB
  0
TABLE
  2
VIEW
 70
     0
  0
ENDTAB
  0
TABLE
  2
UCS
 70
     0
  0
ENDTAB
  0
TABLE
  2
APPID
 70
     1
  0
APPID
  2
ACAD
 70
     0
  0
ENDTAB
  0
TABLE
  2
DIMSTYLE
 70
     1
  0
DIMSTYLE
  2
STANDARD
 70
     0
  3

  4

  5

  6

  7

 40
1.0
 41
0.18
 42
0.0625
 43
0.38
 44
0.18
 45
0.0
 46
0.0
 47
0.0
 48
0.0
140
0.18
141
0.09
142
0.0
143
25.399999999999999
144
1.0
145
0.0
146
1.0
147
0.09
 71
     0
 72
     0
 73
     1
 74
     1
 75
     0
 76
     0
 77
     0
 78
     0
170
     0
171
     2
172
     0
173
     0
174
     0
175
     0
176
     0
177
     0
178
     0
  0
ENDTAB
  0
ENDSEC
  0
SECTION
  2
BLOCKS
  0
BLOCK
  8
0
  2
$MODEL_SPACE
 70
     0
 10
0.0
 20
0.0
 30
0.0
  3
$MODEL_SPACE
  1

  0
ENDBLK
  5
55D
  8
0
  0
BLOCK
 67
     1
  8
0
  2
$PAPER_SPACE
 70
     0
 10
0.0
 20
0.0
 30
0.0
  3
$PAPER_SPACE
  1

  0
ENDBLK
  5
559
 67
     1
  8
0
  0
BLOCK
  8
0
  2
KOZU0001
 70
     0
 10
0.0
 20
0.0
 30
0.0
  3
KOZU0001
  1

  0
POLYLINE
  5
570
  8
0
  6
CONTINUOUS
 62
     7
 66
     1
 10
0.0
 20
0.0
 30
0.0
 70
     1
 40
0.4000000100000002
 41
0.4000000100000002
  0
VERTEX
  5
78B
  8
0
  6
CONTINUOUS
 62
     7
 10
-0.2
 20
0.0
 30
0.0
 42
1.0
  0
VERTEX
  5
78C
  8
0
  6
CONTINUOUS
 62
     7
 10
0.2
 20
0.0
 30
0.0
 42
1.0
  0
SEQEND
  5
78D
  8
0
  6
CONTINUOUS
 62
     7
  0
ENDBLK
  5
574
  8
0
  0
BLOCK
  8
0
  2
KOZU0002
 70
     0
 10
0.0
 20
0.0
 30
0.0
  3
KOZU0002
  1

  0
POLYLINE
  5
577
  8
0
  6
CONTINUOUS
 62
     7
 66
     1
 10
0.0
 20
0.0
 30
0.0
 70
     1
 40
0.4000000100000002
 41
0.4000000100000002
  0
VERTEX
  5
78E
  8
0
  6
CONTINUOUS
 62
     7
 10
-0.2
 20
0.0
 30
0.0
 42
1.0
  0
VERTEX
  5
78F
  8
0
  6
CONTINUOUS
 62
     7
 10
0.2
 20
0.0
 30
0.0
 42
1.0
  0
SEQEND
  5
790
  8
0
  6
CONTINUOUS
 62
     7
  0
ENDBLK
  5
57B
  8
0
  0
BLOCK
  8
0
  2
KOZU0003
 70
     0
 10
0.0
 20
0.0
 30
0.0
  3
KOZU0003
  1

  0
POLYLINE
  5
57E
  8
0
  6
CONTINUOUS
 62
     7
 66
     1
 10
0.0
 20
0.0
 30
0.0
 70
     1
 40
0.4000000100000002
 41
0.4000000100000002
  0
VERTEX
  5
791
  8
0
  6
CONTINUOUS
 62
     7
 10
-0.2
 20
0.0
 30
0.0
 42
1.0
  0
VERTEX
  5
792
  8
0
  6
CONTINUOUS
 62
     7
 10
0.2
 20
0.0
 30
0.0
 42
1.0
  0
SEQEND
  5
793
  8
0
  6
CONTINUOUS
 62
     7
  0
ENDBLK
  5
582
  8
0
  0
BLOCK
  8
0
  2
KOZU0004
 70
     0
 10
0.0
 20
0.0
 30
0.0
  3
KOZU0004
  1

  0
POLYLINE
  5
585
  8
0
  6
CONTINUOUS
 62
     7
 66
     1
 10
0.0
 20
0.0
 30
0.0
 70
     1
 40
0.4000000100000002
 41
0.4000000100000002
  0
VERTEX
  5
794
  8
0
  6
CONTINUOUS
 62
     7
 10
-0.2
 20
0.0
 30
0.0
 42
1.0
  0
VERTEX
  5
795
  8
0
  6
CONTINUOUS
 62
     7
 10
0.2
 20
0.0
 30
0.0
 42
1.0
  0
SEQEND
  5
796
  8
0
  6
CONTINUOUS
 62
     7
  0
ENDBLK
  5
589
  8
0
  0
BLOCK
  8
0
  2
KOZU0005
 70
     0
 10
0.0
 20
0.0
 30
0.0
  3
KOZU0005
  1

  0
POLYLINE
  5
58C
  8
0
  6
CONTINUOUS
 62
     7
 66
     1
 10
0.0
 20
0.0
 30
0.0
 70
     1
 40
0.4000000100000002
 41
0.4000000100000002
  0
VERTEX
  5
797
  8
0
  6
CONTINUOUS
 62
     7
 10
-0.2
 20
0.0
 30
0.0
 42
1.0
  0
VERTEX
  5
798
  8
0
  6
CONTINUOUS
 62
     7
 10
0.2
 20
0.0
 30
0.0
 42
1.0
  0
SEQEND
  5
799
  8
0
  6
CONTINUOUS
 62
     7
  0
ENDBLK
  5
590
  8
0
  0
BLOCK
  8
0
  2
KOZU0006
 70
     0
 10
0.0
 20
0.0
 30
0.0
  3
KOZU0006
  1

  0
POLYLINE
  5
593
  8
0
  6
CONTINUOUS
 62
     7
 66
     1
 10
0.0
 20
0.0
 30
0.0
 70
     1
 40
0.4000000100000002
 41
0.4000000100000002
  0
VERTEX
  5
79A
  8
0
  6
CONTINUOUS
 62
     7
 10
-0.2
 20
0.0
 30
0.0
 42
1.0
  0
VERTEX
  5
79B
  8
0
  6
CONTINUOUS
 62
     7
 10
0.2
 20
0.0
 30
0.0
 42
1.0
  0
SEQEND
  5
79C
  8
0
  6
CONTINUOUS
 62
     7
  0
ENDBLK
  5
597
  8
0
  0
BLOCK
  8
0
  2
KOZU0007
 70
     0
 10
0.0
 20
0.0
 30
0.0
  3
KOZU0007
  1

  0
POLYLINE
  5
59A
  8
0
  6
CONTINUOUS
 62
     7
 66
     1
 10
0.0
 20
0.0
 30
0.0
 70
     1
 40
0.4000000100000002
 41
0.4000000100000002
  0
VERTEX
  5
79D
  8
0
  6
CONTINUOUS
 62
     7
 10
-0.2
 20
0.0
 30
0.0
 42
1.0
  0
VERTEX
  5
79E
  8
0
  6
CONTINUOUS
 62
     7
 10
0.2
 20
0.0
 30
0.0
 42
1.0
  0
SEQEND
  5
79F
  8
0
  6
CONTINUOUS
 62
     7
  0
ENDBLK
  5
59E
  8
0
  0
BLOCK
  8
0
  2
KOZU0008
 70
     0
 10
0.0
 20
0.0
 30
0.0
  3
KOZU0008
  1

  0
POLYLINE
  5
5A1
  8
0
  6
CONTINUOUS
 62
     7
 66
     1
 10
0.0
 20
0.0
 30
0.0
 70
     1
 40
0.4000000100000002
 41
0.4000000100000002
  0
VERTEX
  5
7A0
  8
0
  6
CONTINUOUS
 62
     7
 10
-0.2
 20
0.0
 30
0.0
 42
1.0
  0
VERTEX
  5
7A1
  8
0
  6
CONTINUOUS
 62
     7
 10
0.2
 20
0.0
 30
0.0
 42
1.0
  0
SEQEND
  5
7A2
  8
0
  6
CONTINUOUS
 62
     7
  0
ENDBLK
  5
5A5
  8
0
  0
BLOCK
  8
0
  2
KOZU0009
 70
     0
 10
0.0
 20
0.0
 30
0.0
  3
KOZU0009
  1

  0
POLYLINE
  5
5A8
  8
0
  6
CONTINUOUS
 62
     7
 66
     1
 10
0.0
 20
0.0
 30
0.0
 70
     1
 40
0.4000000100000002
 41
0.4000000100000002
  0
VERTEX
  5
7A3
  8
0
  6
CONTINUOUS
 62
     7
 10
-0.2
 20
0.0
 30
0.0
 42
1.0
  0
VERTEX
  5
7A4
  8
0
  6
CONTINUOUS
 62
     7
 10
0.2
 20
0.0
 30
0.0
 42
1.0
  0
SEQEND
  5
7A5
  8
0
  6
CONTINUOUS
 62
     7
  0
ENDBLK
  5
5AC
  8
0
  0
BLOCK
  8
0
  2
KOZU0010
 70
     0
 10
0.0
 20
0.0
 30
0.0
  3
KOZU0010
  1

  0
POLYLINE
  5
5AF
  8
0
  6
CONTINUOUS
 62
     7
 66
     1
 10
0.0
 20
0.0
 30
0.0
 70
     1
 40
0.4000000100000002
 41
0.4000000100000002
  0
VERTEX
  5
7A6
  8
0
  6
CONTINUOUS
 62
     7
 10
-0.2
 20
0.0
 30
0.0
 42
1.0
  0
VERTEX
  5
7A7
  8
0
  6
CONTINUOUS
 62
     7
 10
0.2
 20
0.0
 30
0.0
 42
1.0
  0
SEQEND
  5
7A8
  8
0
  6
CONTINUOUS
 62
     7
  0
ENDBLK
  5
5B3
  8
0
  0
BLOCK
  8
0
  2
KOZU0011
 70
     0
 10
0.0
 20
0.0
 30
0.0
  3
KOZU0011
  1

  0
POLYLINE
  5
5B6
  8
0
  6
CONTINUOUS
 62
     7
 66
     1
 10
0.0
 20
0.0
 30
0.0
 70
     1
 40
0.4000000100000002
 41
0.4000000100000002
  0
VERTEX
  5
7A9
  8
0
  6
CONTINUOUS
 62
     7
 10
-0.2
 20
0.0
 30
0.0
 42
1.0
  0
VERTEX
  5
7AA
  8
0
  6
CONTINUOUS
 62
     7
 10
0.2
 20
0.0
 30
0.0
 42
1.0
  0
SEQEND
  5
7AB
  8
0
  6
CONTINUOUS
 62
     7
  0
ENDBLK
  5
5BA
  8
0
  0
BLOCK
  8
0
  2
KOZU0012
 70
     0
 10
0.0
 20
0.0
 30
0.0
  3
KOZU0012
  1

  0
POLYLINE
  5
5BD
  8
0
  6
CONTINUOUS
 62
     7
 66
     1
 10
0.0
 20
0.0
 30
0.0
 70
     1
 40
0.4000000100000002
 41
0.4000000100000002
  0
VERTEX
  5
7AC
  8
0
  6
CONTINUOUS
 62
     7
 10
-0.2
 20
0.0
 30
0.0
 42
1.0
  0
VERTEX
  5
7AD
  8
0
  6
CONTINUOUS
 62
     7
 10
0.2
 20
0.0
 30
0.0
 42
1.0
  0
SEQEND
  5
7AE
  8
0
  6
CONTINUOUS
 62
     7
  0
ENDBLK
  5
5C1
  8
0
  0
BLOCK
  8
0
  2
KOZU0013
 70
     0
 10
0.0
 20
0.0
 30
0.0
  3
KOZU0013
  1

  0
POLYLINE
  5
5C4
  8
0
  6
CONTINUOUS
 62
     7
 66
     1
 10
0.0
 20
0.0
 30
0.0
 70
     1
 40
0.4000000100000002
 41
0.4000000100000002
  0
VERTEX
  5
7AF
  8
0
  6
CONTINUOUS
 62
     7
 10
-0.2
 20
0.0
 30
0.0
 42
1.0
  0
VERTEX
  5
7B0
  8
0
  6
CONTINUOUS
 62
     7
 10
0.2
 20
0.0
 30
0.0
 42
1.0
  0
SEQEND
  5
7B1
  8
0
  6
CONTINUOUS
 62
     7
  0
ENDBLK
  5
5C8
  8
0
  0
BLOCK
  8
0
  2
KOZU0014
 70
     0
 10
0.0
 20
0.0
 30
0.0
  3
KOZU0014
  1

  0
POLYLINE
  5
5CB
  8
0
  6
CONTINUOUS
 62
     7
 66
     1
 10
0.0
 20
0.0
 30
0.0
 70
     1
 40
0.4000000100000002
 41
0.4000000100000002
  0
VERTEX
  5
7B2
  8
0
  6
CONTINUOUS
 62
     7
 10
-0.2
 20
0.0
 30
0.0
 42
1.0
  0
VERTEX
  5
7B3
  8
0
  6
CONTINUOUS
 62
     7
 10
0.2
 20
0.0
 30
0.0
 42
1.0
  0
SEQEND
  5
7B4
  8
0
  6
CONTINUOUS
 62
     7
  0
ENDBLK
  5
5CF
  8
0
  0
BLOCK
  8
0
  2
KOZU0015
 70
     0
 10
0.0
 20
0.0
 30
0.0
  3
KOZU0015
  1

  0
POLYLINE
  5
5D2
  8
0
  6
CONTINUOUS
 62
     7
 66
     1
 10
0.0
 20
0.0
 30
0.0
 70
     1
 40
0.4000000100000002
 41
0.4000000100000002
  0
VERTEX
  5
7B5
  8
0
  6
CONTINUOUS
 62
     7
 10
-0.2
 20
0.0
 30
0.0
 42
1.0
  0
VERTEX
  5
7B6
  8
0
  6
CONTINUOUS
 62
     7
 10
0.2
 20
0.0
 30
0.0
 42
1.0
  0
SEQEND
  5
7B7
  8
0
  6
CONTINUOUS
 62
     7
  0
ENDBLK
  5
5D6
  8
0
  0
BLOCK
  8
0
  2
KOZU0016
 70
     0
 10
0.0
 20
0.0
 30
0.0
  3
KOZU0016
  1

  0
POLYLINE
  5
5D9
  8
0
  6
CONTINUOUS
 62
     7
 66
     1
 10
0.0
 20
0.0
 30
0.0
 70
     1
 40
0.4000000100000002
 41
0.4000000100000002
  0
VERTEX
  5
7B8
  8
0
  6
CONTINUOUS
 62
     7
 10
-0.2
 20
0.0
 30
0.0
 42
1.0
  0
VERTEX
  5
7B9
  8
0
  6
CONTINUOUS
 62
     7
 10
0.2
 20
0.0
 30
0.0
 42
1.0
  0
SEQEND
  5
7BA
  8
0
  6
CONTINUOUS
 62
     7
  0
ENDBLK
  5
5DD
  8
0
  0
BLOCK
  8
0
  2
KOZU0017
 70
     0
 10
0.0
 20
0.0
 30
0.0
  3
KOZU0017
  1

  0
POLYLINE
  5
5E0
  8
0
  6
CONTINUOUS
 62
     7
 66
     1
 10
0.0
 20
0.0
 30
0.0
 70
     1
 40
0.4000000100000002
 41
0.4000000100000002
  0
VERTEX
  5
7BB
  8
0
  6
CONTINUOUS
 62
     7
 10
-0.2
 20
0.0
 30
0.0
 42
1.0
  0
VERTEX
  5
7BC
  8
0
  6
CONTINUOUS
 62
     7
 10
0.2
 20
0.0
 30
0.0
 42
1.0
  0
SEQEND
  5
7BD
  8
0
  6
CONTINUOUS
 62
     7
  0
ENDBLK
  5
5E4
  8
0
  0
BLOCK
  8
0
  2
KOZU0018
 70
     0
 10
0.0
 20
0.0
 30
0.0
  3
KOZU0018
  1

  0
POLYLINE
  5
5E7
  8
0
  6
CONTINUOUS
 62
     7
 66
     1
 10
0.0
 20
0.0
 30
0.0
 70
     1
 40
0.4000000100000002
 41
0.4000000100000002
  0
VERTEX
  5
7BE
  8
0
  6
CONTINUOUS
 62
     7
 10
-0.2
 20
0.0
 30
0.0
 42
1.0
  0
VERTEX
  5
7BF
  8
0
  6
CONTINUOUS
 62
     7
 10
0.2
 20
0.0
 30
0.0
 42
1.0
  0
SEQEND
  5
7C0
  8
0
  6
CONTINUOUS
 62
     7
  0
ENDBLK
  5
5EB
  8
0
  0
BLOCK
  8
0
  2
KOZU0019
 70
     0
 10
0.0
 20
0.0
 30
0.0
  3
KOZU0019
  1

  0
POLYLINE
  5
5EE
  8
0
  6
CONTINUOUS
 62
     7
 66
     1
 10
0.0
 20
0.0
 30
0.0
 70
     1
 40
0.4000000100000002
 41
0.4000000100000002
  0
VERTEX
  5
7C1
  8
0
  6
CONTINUOUS
 62
     7
 10
-0.2
 20
0.0
 30
0.0
 42
1.0
  0
VERTEX
  5
7C2
  8
0
  6
CONTINUOUS
 62
     7
 10
0.2
 20
0.0
 30
0.0
 42
1.0
  0
SEQEND
  5
7C3
  8
0
  6
CONTINUOUS
 62
     7
  0
ENDBLK
  5
5F2
  8
0
  0
BLOCK
  8
0
  2
KOZU0020
 70
     0
 10
0.0
 20
0.0
 30
0.0
  3
KOZU0020
  1

  0
POLYLINE
  5
5F5
  8
0
  6
CONTINUOUS
 62
     7
 66
     1
 10
0.0
 20
0.0
 30
0.0
 70
     1
 40
0.4000000100000002
 41
0.4000000100000002
  0
VERTEX
  5
7C4
  8
0
  6
CONTINUOUS
 62
     7
 10
-0.2
 20
0.0
 30
0.0
 42
1.0
  0
VERTEX
  5
7C5
  8
0
  6
CONTINUOUS
 62
     7
 10
0.2
 20
0.0
 30
0.0
 42
1.0
  0
SEQEND
  5
7C6
  8
0
  6
CONTINUOUS
 62
     7
  0
ENDBLK
  5
5F9
  8
0
  0
BLOCK
  8
0
  2
KOZU0021
 70
     0
 10
0.0
 20
0.0
 30
0.0
  3
KOZU0021
  1

  0
POLYLINE
  5
5FC
  8
0
  6
CONTINUOUS
 62
     7
 66
     1
 10
0.0
 20
0.0
 30
0.0
 70
     1
 40
0.4000000100000002
 41
0.4000000100000002
  0
VERTEX
  5
7C7
  8
0
  6
CONTINUOUS
 62
     7
 10
-0.2
 20
0.0
 30
0.0
 42
1.0
  0
VERTEX
  5
7C8
  8
0
  6
CONTINUOUS
 62
     7
 10
0.2
 20
0.0
 30
0.0
 42
1.0
  0
SEQEND
  5
7C9
  8
0
  6
CONTINUOUS
 62
     7
  0
ENDBLK
  5
600
  8
0
  0
BLOCK
  8
0
  2
KOZU0022
 70
     0
 10
0.0
 20
0.0
 30
0.0
  3
KOZU0022
  1

  0
POLYLINE
  5
603
  8
0
  6
CONTINUOUS
 62
     7
 66
     1
 10
0.0
 20
0.0
 30
0.0
 70
     1
 40
0.4000000100000002
 41
0.4000000100000002
  0
VERTEX
  5
7CA
  8
0
  6
CONTINUOUS
 62
     7
 10
-0.2
 20
0.0
 30
0.0
 42
1.0
  0
VERTEX
  5
7CB
  8
0
  6
CONTINUOUS
 62
     7
 10
0.2
 20
0.0
 30
0.0
 42
1.0
  0
SEQEND
  5
7CC
  8
0
  6
CONTINUOUS
 62
     7
  0
ENDBLK
  5
607
  8
0
  0
BLOCK
  8
0
  2
KOZU0023
 70
     0
 10
0.0
 20
0.0
 30
0.0
  3
KOZU0023
  1

  0
POLYLINE
  5
60A
  8
0
  6
CONTINUOUS
 62
     7
 66
     1
 10
0.0
 20
0.0
 30
0.0
 70
     1
 40
0.4000000100000002
 41
0.4000000100000002
  0
VERTEX
  5
7CD
  8
0
  6
CONTINUOUS
 62
     7
 10
-0.2
 20
0.0
 30
0.0
 42
1.0
  0
VERTEX
  5
7CE
  8
0
  6
CONTINUOUS
 62
     7
 10
0.2
 20
0.0
 30
0.0
 42
1.0
  0
SEQEND
  5
7CF
  8
0
  6
CONTINUOUS
 62
     7
  0
ENDBLK
  5
60E
  8
0
  0
BLOCK
  8
0
  2
KOZU0024
 70
     0
 10
0.0
 20
0.0
 30
0.0
  3
KOZU0024
  1

  0
POLYLINE
  5
611
  8
0
  6
CONTINUOUS
 62
     7
 66
     1
 10
0.0
 20
0.0
 30
0.0
 70
     1
 40
0.4000000100000002
 41
0.4000000100000002
  0
VERTEX
  5
7D0
  8
0
  6
CONTINUOUS
 62
     7
 10
-0.2
 20
0.0
 30
0.0
 42
1.0
  0
VERTEX
  5
7D1
  8
0
  6
CONTINUOUS
 62
     7
 10
0.2
 20
0.0
 30
0.0
 42
1.0
  0
SEQEND
  5
7D2
  8
0
  6
CONTINUOUS
 62
     7
  0
ENDBLK
  5
615
  8
0
  0
BLOCK
  8
0
  2
KOZU0025
 70
     0
 10
0.0
 20
0.0
 30
0.0
  3
KOZU0025
  1

  0
POLYLINE
  5
618
  8
0
  6
CONTINUOUS
 62
     7
 66
     1
 10
0.0
 20
0.0
 30
0.0
 70
     1
 40
0.4000000100000002
 41
0.4000000100000002
  0
VERTEX
  5
7D3
  8
0
  6
CONTINUOUS
 62
     7
 10
-0.2
 20
0.0
 30
0.0
 42
1.0
  0
VERTEX
  5
7D4
  8
0
  6
CONTINUOUS
 62
     7
 10
0.2
 20
0.0
 30
0.0
 42
1.0
  0
SEQEND
  5
7D5
  8
0
  6
CONTINUOUS
 62
     7
  0
ENDBLK
  5
61C
  8
0
  0
BLOCK
  8
0
  2
KOZU0026
 70
     0
 10
0.0
 20
0.0
 30
0.0
  3
KOZU0026
  1

  0
POLYLINE
  5
61F
  8
0
  6
CONTINUOUS
 62
     7
 66
     1
 10
0.0
 20
0.0
 30
0.0
 70
     1
 40
0.4000000100000002
 41
0.4000000100000002
  0
VERTEX
  5
7D6
  8
0
  6
CONTINUOUS
 62
     7
 10
-0.2
 20
0.0
 30
0.0
 42
1.0
  0
VERTEX
  5
7D7
  8
0
  6
CONTINUOUS
 62
     7
 10
0.2
 20
0.0
 30
0.0
 42
1.0
  0
SEQEND
  5
7D8
  8
0
  6
CONTINUOUS
 62
     7
  0
ENDBLK
  5
623
  8
0
  0
BLOCK
  8
0
  2
KOZU0027
 70
     0
 10
0.0
 20
0.0
 30
0.0
  3
KOZU0027
  1

  0
POLYLINE
  5
626
  8
0
  6
CONTINUOUS
 62
     7
 66
     1
 10
0.0
 20
0.0
 30
0.0
 70
     1
 40
0.4000000100000002
 41
0.4000000100000002
  0
VERTEX
  5
7D9
  8
0
  6
CONTINUOUS
 62
     7
 10
-0.2
 20
0.0
 30
0.0
 42
1.0
  0
VERTEX
  5
7DA
  8
0
  6
CONTINUOUS
 62
     7
 10
0.2
 20
0.0
 30
0.0
 42
1.0
  0
SEQEND
  5
7DB
  8
0
  6
CONTINUOUS
 62
     7
  0
ENDBLK
  5
62A
  8
0
  0
BLOCK
  8
0
  2
KOZU0028
 70
     0
 10
0.0
 20
0.0
 30
0.0
  3
KOZU0028
  1

  0
POLYLINE
  5
62D
  8
0
  6
CONTINUOUS
 62
     7
 66
     1
 10
0.0
 20
0.0
 30
0.0
 70
     1
 40
0.4000000100000002
 41
0.4000000100000002
  0
VERTEX
  5
7DC
  8
0
  6
CONTINUOUS
 62
     7
 10
-0.2
 20
0.0
 30
0.0
 42
1.0
  0
VERTEX
  5
7DD
  8
0
  6
CONTINUOUS
 62
     7
 10
0.2
 20
0.0
 30
0.0
 42
1.0
  0
SEQEND
  5
7DE
  8
0
  6
CONTINUOUS
 62
     7
  0
ENDBLK
  5
631
  8
0
  0
BLOCK
  8
0
  2
KOZU0029
 70
     0
 10
0.0
 20
0.0
 30
0.0
  3
KOZU0029
  1

  0
POLYLINE
  5
634
  8
0
  6
CONTINUOUS
 62
     7
 66
     1
 10
0.0
 20
0.0
 30
0.0
 70
     1
 40
0.4000000100000002
 41
0.4000000100000002
  0
VERTEX
  5
7DF
  8
0
  6
CONTINUOUS
 62
     7
 10
-0.2
 20
0.0
 30
0.0
 42
1.0
  0
VERTEX
  5
7E0
  8
0
  6
CONTINUOUS
 62
     7
 10
0.2
 20
0.0
 30
0.0
 42
1.0
  0
SEQEND
  5
7E1
  8
0
  6
CONTINUOUS
 62
     7
  0
ENDBLK
  5
638
  8
0
  0
BLOCK
  8
0
  2
KOZU0030
 70
     0
 10
0.0
 20
0.0
 30
0.0
  3
KOZU0030
  1

  0
POLYLINE
  5
63B
  8
0
  6
CONTINUOUS
 62
     7
 66
     1
 10
0.0
 20
0.0
 30
0.0
 70
     1
 40
0.4000000100000002
 41
0.4000000100000002
  0
VERTEX
  5
7E2
  8
0
  6
CONTINUOUS
 62
     7
 10
-0.2
 20
0.0
 30
0.0
 42
1.0
  0
VERTEX
  5
7E3
  8
0
  6
CONTINUOUS
 62
     7
 10
0.2
 20
0.0
 30
0.0
 42
1.0
  0
SEQEND
  5
7E4
  8
0
  6
CONTINUOUS
 62
     7
  0
ENDBLK
  5
63F
  8
0
  0
ENDSEC
  0
SECTION
  2
ENTITIES
  0
POINT
  5
640
  8
0
  6
CONTINUOUS
 62
     3
 10
561.04992999999979
 20
468.57168999999999
 30
0.0
  0
POINT
  5
641
  8
0
  6
CONTINUOUS
 62
     3
 10
557.04993000000002
 20
470.07168999999988
 30
0.0
  0
POINT
  5
642
  8
0
  6
CONTINUOUS
 62
     3
 10
557.04993000000002
 20
480.07168999999999
 30
0.0
  0
POINT
  5
643
  8
0
  6
CONTINUOUS
 62
     3
 10
557.04993000000002
 20
470.07168999999988
 30
0.0
  0
POINT
  5
644
  8
0
  6
CONTINUOUS
 62
     3
 10
583.04987000000006
 20
470.07168999999988
 30
0.0
  0
POINT
  5
645
  8
0
  6
CONTINUOUS
 62
     3
 10
583.04987000000006
 20
490.07168999999988
 30
0.0
  0
POINT
  5
646
  8
0
  6
CONTINUOUS
 62
     3
 10
656.63378999999975
 20
470.07168999999988
 30
0.0
  0
POINT
  5
647
  8
0
  6
CONTINUOUS
 62
     3
 10
667.63378999999998
 20
470.07168999999988
 30
0.0
  0
POINT
  5
648
  8
0
  6
CONTINUOUS
 62
     3
 10
667.63378999999998
 20
490.07168999999988
 30
0.0
  0
POINT
  5
649
  8
0
  6
CONTINUOUS
 62
     3
 10
583.04987000000006
 20
427.07168999999999
 30
0.0
  0
POINT
  5
64A
  8
0
  6
CONTINUOUS
 62
     3
 10
583.04987000000006
 20
470.07168999999988
 30
0.0
  0
POINT
  5
64B
  8
0
  6
CONTINUOUS
 62
     3
 10
611.79987000000017
 20
470.07168999999988
 30
0.0
  0
POINT
  5
64C
  8
0
  6
CONTINUOUS
 62
     3
 10
572.79993000000002
 20
411.07168999999988
 30
0.0
  0
POINT
  5
64D
  8
0
  6
CONTINUOUS
 62
     3
 10
572.79993000000002
 20
411.07168999999988
 30
0.0
  0
POINT
  5
64E
  8
0
  6
CONTINUOUS
 62
     3
 10
621.79987000000006
 20
411.07168999999988
 30
0.0
  0
POINT
  5
64F
  8
0
  6
CONTINUOUS
 62
     3
 10
584.04987000000017
 20
433.57168999999999
 30
0.0
  0
POINT
  5
650
  8
0
  6
CONTINUOUS
 62
     3
 10
583.04987000000006
 20
427.07168999999999
 30
0.0
  0
POINT
  5
651
  8
0
  6
CONTINUOUS
 62
     3
 10
601.79987000000006
 20
427.07168999999999
 30
0.0
  0
POINT
  5
652
  8
0
  6
CONTINUOUS
 62
     3
 10
584.04987000000017
 20
463.57168999999999
 30
0.0
  0
POINT
  5
653
  8
0
  6
CONTINUOUS
 62
     3
 10
584.04987000000017
 20
433.57168999999999
 30
0.0
  0
POINT
  5
654
  8
0
  6
CONTINUOUS
 62
     3
 10
601.79987000000006
 20
433.57168999999999
 30
0.0
  0
POINT
  5
655
  8
0
  6
CONTINUOUS
 62
     3
 10
583.04987000000006
 20
470.07168999999988
 30
0.0
  0
POINT
  5
656
  8
0
  6
CONTINUOUS
 62
     3
 10
584.04987000000017
 20
463.57168999999999
 30
0.0
  0
POINT
  5
657
  8
0
  6
CONTINUOUS
 62
     3
 10
601.79987000000006
 20
463.57168999999999
 30
0.0
  0
POINT
  5
658
  8
0
  6
CONTINUOUS
 62
     3
 10
566.04993000000002
 20
412.32168999999999
 30
0.0
  0
POINT
  5
659
  8
0
  6
CONTINUOUS
 62
     3
 10
574.04993000000002
 20
412.32168999999999
 30
0.0
  0
POINT
  5
65A
  8
0
  6
CONTINUOUS
 62
     3
 10
574.04993000000002
 20
396.07168999999988
 30
0.0
  0
POINT
  5
65B
  8
0
  6
CONTINUOUS
 62
     3
 10
561.04992999999979
 20
468.57168999999999
 30
0.0
  0
POINT
  5
65C
  8
0
  6
CONTINUOUS
 62
     3
 10
579.04987000000006
 20
468.57168999999999
 30
0.0
  0
POINT
  5
65D
  8
0
  6
CONTINUOUS
 62
     3
 10
579.04987000000006
 20
480.07168999999999
 30
0.0
  0
POINT
  5
65E
  8
0
  6
CONTINUOUS
 62
     3
 10
579.04987000000006
 20
468.57168999999999
 30
0.0
  0
POINT
  5
65F
  8
0
  6
CONTINUOUS
 62
     3
 10
583.04987000000006
 20
470.07168999999988
 30
0.0
  0
POINT
  5
660
  8
0
  6
CONTINUOUS
 62
     3
 10
583.04987000000006
 20
480.07168999999999
 30
0.0
  0
POINT
  5
661
  8
0
  6
CONTINUOUS
 62
     3
 10
666.1337900000002
 20
470.07168999999988
 30
0.0
  0
POINT
  5
662
  8
0
  6
CONTINUOUS
 62
     3
 10
667.63378999999998
 20
470.07168999999988
 30
0.0
  0
POINT
  5
663
  8
0
  6
CONTINUOUS
 62
     3
 10
667.63378999999998
 20
480.07168999999999
 30
0.0
  0
POINT
  5
664
  8
0
  6
CONTINUOUS
 62
     3
 10
580.20294000000001
 20
466.44927999999987
 30
0.0
  0
POINT
  5
665
  8
0
  6
CONTINUOUS
 62
     3
 10
577.89684999999963
 20
460.69409000000002
 30
0.0
  0
POINT
  5
666
  8
0
  6
CONTINUOUS
 62
     7
 10
0.0
 20
0.0
 30
0.0
  0
POINT
  5
667
  8
0
  6
CONTINUOUS
 62
     3
 10
662.1337900000002
 20
473.57393999999988
 30
0.0
  0
POINT
  5
668
  8
0
  6
CONTINUOUS
 62
     3
 10
656.63378999999975
 20
470.07168999999988
 30
0.0
  0
POINT
  5
669
  8
0
  6
CONTINUOUS
 62
     3
 10
656.63378999999975
 20
480.07168999999999
 30
0.0
  0
POINT
  5
66A
  8
0
  6
CONTINUOUS
 62
     3
 10
586.79987000000017
 20
444.54043999999999
 30
0.0
  0
POINT
  5
66B
  8
0
  6
CONTINUOUS
 62
     3
 10
570.04993000000002
 20
444.54043999999999
 30
0.0
  0
POINT
  5
66C
  8
0
  6
CONTINUOUS
 62
     3
 10
570.04993000000002
 20
451.91710999999998
 30
0.0
  0
LINE
  5
66D
  8
0
  6
CONTINUOUS
 62
     7
 10
557.04993000000002
 20
470.07168999999988
 30
0.0
 11
583.04987000000006
 21
470.07168999999988
 31
0.0
  0
LINE
  5
66E
  8
0
  6
CONTINUOUS
 62
     7
 10
557.04993000000002
 20
427.07168999999999
 30
0.0
 11
583.04987000000006
 21
427.07168999999999
 31
0.0
  0
LINE
  5
66F
  8
0
  6
CENTER
 62
     4
 10
556.04993000000002
 20
433.57168999999999
 30
0.0
 11
566.04993000000002
 21
433.57168999999999
 31
0.0
  0
LINE
  5
670
  8
0
  6
CENTER
 62
     4
 10
556.04993000000002
 20
463.57168999999999
 30
0.0
 11
566.04993000000002
 21
463.57168999999999
 31
0.0
  0
LINE
  5
671
  8
0
  6
CONTINUOUS
 62
     3
 10
561.04992999999979
 20
469.57168999999988
 30
0.0
 11
561.04992999999979
 21
481.07168999999999
 31
0.0
  0
LINE
  5
672
  8
0
  6
CONTINUOUS
 62
     3
 10
557.04993000000002
 20
471.07168999999999
 30
0.0
 11
557.04993000000002
 21
481.07168999999999
 31
0.0
  0
LINE
  5
673
  8
0
  6
CONTINUOUS
 62
     3
 10
561.84990999999991
 20
480.07168999999999
 30
0.0
 11
562.64989999999989
 21
480.07168999999999
 31
0.0
  0
LINE
  5
674
  8
0
  6
CONTINUOUS
 62
     3
 10
556.24987999999985
 20
480.07168999999999
 30
0.0
 11
555.44988999999975
 21
480.07168999999999
 31
0.0
  0
LINE
  5
675
  8
0
  6
CONTINUOUS
 62
     3
 10
561.04992999999979
 20
480.07168999999999
 30
0.0
 11
557.04993000000002
 21
480.07168999999999
 31
0.0
  0
LINE
  5
676
  8
0
  6
CONTINUOUS
 62
     7
 10
561.44988999999998
 20
480.07168999999999
 30
0.0
 11
561.84990999999991
 21
480.07168999999999
 31
0.0
  0
LINE
  5
677
  8
0
  6
CONTINUOUS
 62
     7
 10
556.6499
 20
480.07168999999999
 30
0.0
 11
556.24987999999985
 21
480.07168999999999
 31
0.0
  0
LINE
  5
678
  8
0
  6
CONTINUOUS
 62
     3
 10
557.04993000000002
 20
471.07168999999999
 30
0.0
 11
557.04993000000002
 21
491.07168999999988
 31
0.0
  0
LINE
  5
679
  8
0
  6
CONTINUOUS
 62
     3
 10
583.04987000000006
 20
471.07168999999999
 30
0.0
 11
583.04987000000006
 21
491.07168999999988
 31
0.0
  0
LINE
  5
67A
  8
0
  6
CONTINUOUS
 62
     3
 10
557.84990999999991
 20
490.07168999999988
 30
0.0
 11
582.24987999999985
 21
490.07168999999988
 31
0.0
  0
LINE
  5
67B
  8
0
  6
CONTINUOUS
 62
     7
 10
557.44988999999998
 20
490.07168999999988
 30
0.0
 11
557.84990999999991
 21
490.07168999999988
 31
0.0
  0
LINE
  5
67C
  8
0
  6
CONTINUOUS
 62
     7
 10
582.6499
 20
490.07168999999988
 30
0.0
 11
582.24987999999985
 21
490.07168999999988
 31
0.0
  0
LINE
  5
67D
  8
0
  6
CONTINUOUS
 62
     7
 10
557.04993000000002
 20
470.07168999999988
 30
0.0
 11
557.04993000000002
 21
427.07168999999999
 31
0.0
  0
LINE
  5
67E
  8
0
  6
CONTINUOUS
 62
     7
 10
656.63378999999975
 20
427.07168999999999
 30
0.0
 11
667.63378999999998
 21
427.07168999999999
 31
0.0
  0
LINE
  5
67F
  8
0
  6
CONTINUOUS
 62
     7
 10
656.63378999999975
 20
470.07168999999988
 30
0.0
 11
667.63378999999998
 21
470.07168999999988
 31
0.0
  0
LINE
  5
680
  8
0
  6
CONTINUOUS
 62
     3
 10
656.63378999999975
 20
471.07168999999999
 30
0.0
 11
656.63378999999975
 21
491.07168999999988
 31
0.0
  0
LINE
  5
681
  8
0
  6
CONTINUOUS
 62
     3
 10
667.63378999999998
 20
471.07168999999999
 30
0.0
 11
667.63378999999998
 21
491.07168999999988
 31
0.0
  0
LINE
  5
682
  8
0
  6
CONTINUOUS
 62
     3
 10
657.43377999999996
 20
490.07168999999988
 30
0.0
 11
666.8338
 21
490.07168999999988
 31
0.0
  0
LINE
  5
683
  8
0
  6
CONTINUOUS
 62
     7
 10
657.03375000000005
 20
490.07168999999988
 30
0.0
 11
657.43377999999996
 21
490.07168999999988
 31
0.0
  0
LINE
  5
684
  8
0
  6
CONTINUOUS
 62
     7
 10
667.23375999999985
 20
490.07168999999988
 30
0.0
 11
666.8338
 21
490.07168999999988
 31
0.0
  0
LINE
  5
685
  8
0
  6
CONTINUOUS
 62
     3
 10
584.04987000000017
 20
427.07168999999999
 30
0.0
 11
612.79987000000006
 21
427.07168999999999
 31
0.0
  0
LINE
  5
686
  8
0
  6
CONTINUOUS
 62
     3
 10
584.04987000000017
 20
470.07168999999988
 30
0.0
 11
612.79987000000006
 21
470.07168999999988
 31
0.0
  0
LINE
  5
687
  8
0
  6
CONTINUOUS
 62
     3
 10
611.79987000000017
 20
427.87169999999992
 30
0.0
 11
611.79987000000017
 21
469.27170000000001
 31
0.0
  0
LINE
  5
688
  8
0
  6
CONTINUOUS
 62
     7
 10
611.79987000000017
 20
427.47167999999999
 30
0.0
 11
611.79987000000017
 21
427.87169999999992
 31
0.0
  0
LINE
  5
689
  8
0
  6
CONTINUOUS
 62
     7
 10
611.79987000000017
 20
469.67169000000001
 30
0.0
 11
611.79987000000017
 21
469.27170000000001
 31
0.0
  0
LINE
  5
68A
  8
0
  6
CONTINUOUS
 62
     3
 10
573.79993000000002
 20
411.07168999999988
 30
0.0
 11
622.79987000000006
 21
411.07168999999988
 31
0.0
  0
LINE
  5
68B
  8
0
  6
CONTINUOUS
 62
     3
 10
573.79993000000002
 20
411.07168999999988
 30
0.0
 11
622.79987000000006
 21
411.07168999999988
 31
0.0
  0
LINE
  5
68C
  8
0
  6
CONTINUOUS
 62
     3
 10
621.79987000000006
 20
410.27170000000001
 30
0.0
 11
621.79987000000006
 21
409.47167999999988
 31
0.0
  0
LINE
  5
68D
  8
0
  6
CONTINUOUS
 62
     3
 10
621.79987000000006
 20
411.87169999999998
 30
0.0
 11
621.79987000000006
 21
459.8466199999998
 31
0.0
  0
LINE
  5
68E
  8
0
  6
CONTINUOUS
 62
     7
 10
621.79987000000006
 20
410.67169000000001
 30
0.0
 11
621.79987000000006
 21
410.27170000000001
 31
0.0
  0
LINE
  5
68F
  8
0
  6
CONTINUOUS
 62
     7
 10
621.79987000000006
 20
411.47167999999999
 30
0.0
 11
621.79987000000006
 21
411.87169999999998
 31
0.0
  0
LINE
  5
690
  8
0
  6
CONTINUOUS
 62
     7
 10
578.79987000000006
 20
442.87377999999973
 30
0.0
 11
586.04987000000006
 21
442.87377999999973
 31
0.0
  0
LINE
  5
691
  8
0
  6
CONTINUOUS
 62
     7
 10
578.79987000000006
 20
442.04047000000003
 30
0.0
 11
586.04987000000006
 21
442.04047000000003
 31
0.0
  0
LINE
  5
692
  8
0
  6
CONTINUOUS
 62
     7
 10
578.79987000000006
 20
441.2071199999998
 30
0.0
 11
586.04987000000006
 21
441.2071199999998
 31
0.0
  0
LINE
  5
693
  8
0
  6
CONTINUOUS
 62
     7
 10
578.79987000000006
 20
440.37378000000001
 30
0.0
 11
586.04987000000006
 21
440.37378000000001
 31
0.0
  0
LINE
  5
694
  8
0
  6
CONTINUOUS
 62
     7
 10
578.79987000000006
 20
439.54043999999999
 30
0.0
 11
586.04987000000006
 21
439.54043999999999
 31
0.0
  0
LINE
  5
695
  8
0
  6
CONTINUOUS
 62
     7
 10
578.79987000000006
 20
438.70711999999997
 30
0.0
 11
586.04987000000006
 21
438.70711999999997
 31
0.0
  0
LINE
  5
696
  8
0
  6
CONTINUOUS
 62
     7
 10
578.79987000000006
 20
437.87377999999973
 30
0.0
 11
586.04987000000006
 21
437.87377999999973
 31
0.0
  0
LINE
  5
697
  8
0
  6
CONTINUOUS
 62
     7
 10
578.79987000000006
 20
437.04043999999988
 30
0.0
 11
586.04987000000006
 21
437.04043999999988
 31
0.0
  0
LINE
  5
698
  8
0
  6
CONTINUOUS
 62
     7
 10
578.79987000000006
 20
443.70711999999997
 30
0.0
 11
586.04987000000006
 21
443.70711999999997
 31
0.0
  0
LINE
  5
699
  8
0
  6
CONTINUOUS
 62
     7
 10
578.79987000000006
 20
444.54043999999999
 30
0.0
 11
586.04987000000006
 21
444.54043999999999
 31
0.0
  0
LINE
  5
69A
  8
0
  6
CONTINUOUS
 62
     3
 10
585.04987000000006
 20
433.57168999999999
 30
0.0
 11
602.79987000000017
 21
433.57168999999999
 31
0.0
  0
LINE
  5
69B
  8
0
  6
CONTINUOUS
 62
     3
 10
584.04987000000017
 20
427.07168999999999
 30
0.0
 11
602.79987000000017
 21
427.07168999999999
 31
0.0
  0
LINE
  5
69C
  8
0
  6
CONTINUOUS
 62
     3
 10
601.79987000000006
 20
432.77169999999978
 30
0.0
 11
601.79987000000006
 21
427.87169999999992
 31
0.0
  0
LINE
  5
69D
  8
0
  6
CONTINUOUS
 62
     3
 10
601.79987000000006
 20
427.07168999999999
 30
0.0
 11
601.79987000000006
 21
418.05371000000002
 31
0.0
  0
LINE
  5
69E
  8
0
  6
CONTINUOUS
 62
     7
 10
601.79987000000006
 20
433.17168999999978
 30
0.0
 11
601.79987000000006
 21
432.77169999999978
 31
0.0
  0
LINE
  5
69F
  8
0
  6
CONTINUOUS
 62
     7
 10
601.79987000000006
 20
427.47167999999999
 30
0.0
 11
601.79987000000006
 21
427.87169999999992
 31
0.0
  0
LINE
  5
6A0
  8
0
  6
CONTINUOUS
 62
     3
 10
585.04987000000006
 20
463.57168999999999
 30
0.0
 11
602.79987000000017
 21
463.57168999999999
 31
0.0
  0
LINE
  5
6A1
  8
0
  6
CONTINUOUS
 62
     3
 10
585.04987000000006
 20
433.57168999999999
 30
0.0
 11
602.79987000000017
 21
433.57168999999999
 31
0.0
  0
LINE
  5
6A2
  8
0
  6
CONTINUOUS
 62
     3
 10
601.79987000000006
 20
462.77170000000001
 30
0.0
 11
601.79987000000006
 21
434.37169999999981
 31
0.0
  0
LINE
  5
6A3
  8
0
  6
CONTINUOUS
 62
     7
 10
601.79987000000006
 20
463.17168999999978
 30
0.0
 11
601.79987000000006
 21
462.77170000000001
 31
0.0
  0
LINE
  5
6A4
  8
0
  6
CONTINUOUS
 62
     7
 10
601.79987000000006
 20
433.97167999999988
 30
0.0
 11
601.79987000000006
 21
434.37169999999981
 31
0.0
  0
LINE
  5
6A5
  8
0
  6
CONTINUOUS
 62
     3
 10
584.04987000000017
 20
470.07168999999988
 30
0.0
 11
602.79987000000017
 21
470.07168999999988
 31
0.0
  0
LINE
  5
6A6
  8
0
  6
CONTINUOUS
 62
     3
 10
585.04987000000006
 20
463.57168999999999
 30
0.0
 11
602.79987000000017
 21
463.57168999999999
 31
0.0
  0
LINE
  5
6A7
  8
0
  6
CONTINUOUS
 62
     3
 10
601.79987000000006
 20
464.37169999999992
 30
0.0
 11
601.79987000000006
 21
469.27170000000001
 31
0.0
  0
LINE
  5
6A8
  8
0
  6
CONTINUOUS
 62
     3
 10
601.79987000000006
 20
470.07168999999988
 30
0.0
 11
601.79987000000006
 21
479.48754999999989
 31
0.0
  0
LINE
  5
6A9
  8
0
  6
CONTINUOUS
 62
     7
 10
601.79987000000006
 20
463.97167999999999
 30
0.0
 11
601.79987000000006
 21
464.37169999999992
 31
0.0
  0
LINE
  5
6AA
  8
0
  6
CONTINUOUS
 62
     7
 10
601.79987000000006
 20
469.67169000000001
 30
0.0
 11
601.79987000000006
 21
469.27170000000001
 31
0.0
  0
LINE
  5
6AB
  8
0
  6
CONTINUOUS
 62
     7
 10
583.04987000000006
 20
470.07168999999988
 30
0.0
 11
583.04987000000006
 21
444.54043999999999
 31
0.0
  0
LINE
  5
6AC
  8
0
  6
CONTINUOUS
 62
     7
 10
575.67493000000002
 20
458.54043999999988
 30
0.0
 11
575.67493000000002
 21
442.97793999999999
 31
0.0
  0
LINE
  5
6AD
  8
0
  6
CONTINUOUS
 62
     7
 10
564.42493000000002
 20
470.07168999999988
 30
0.0
 11
564.42493000000002
 21
427.07168999999999
 31
0.0
  0
LINE
  5
6AE
  8
0
  6
CENTER
 62
     4
 10
561.04992999999979
 20
438.57168999999999
 30
0.0
 11
561.04992999999979
 21
428.57168999999988
 31
0.0
  0
LINE
  5
6AF
  8
0
  6
CENTER
 62
     4
 10
579.04987000000006
 20
438.57168999999999
 30
0.0
 11
579.04987000000006
 21
428.57168999999988
 31
0.0
  0
LINE
  5
6B0
  8
0
  6
CENTER
 62
     4
 10
570.04993000000002
 20
473.09936999999991
 30
0.0
 11
570.04993000000002
 21
408.06821000000002
 31
0.0
  0
LINE
  5
6B1
  8
0
  6
CONTINUOUS
 62
     7
 10
567.29992999999979
 20
411.07168999999988
 30
0.0
 11
572.79993000000002
 21
411.07168999999988
 31
0.0
  0
LINE
  5
6B2
  8
0
  6
CONTINUOUS
 62
     7
 10
566.04993000000002
 20
412.32168999999999
 30
0.0
 11
574.04993000000002
 21
412.32168999999999
 31
0.0
  0
LINE
  5
6B3
  8
0
  6
CONTINUOUS
 62
     3
 10
566.04993000000002
 20
411.32168999999999
 30
0.0
 11
566.04993000000002
 21
395.07168999999999
 31
0.0
  0
LINE
  5
6B4
  8
0
  6
CONTINUOUS
 62
     3
 10
574.04993000000002
 20
411.32168999999999
 30
0.0
 11
574.04993000000002
 21
395.07168999999999
 31
0.0
  0
LINE
  5
6B5
  8
0
  6
CONTINUOUS
 62
     3
 10
566.8499099999998
 20
396.07168999999988
 30
0.0
 11
573.24987999999996
 21
396.07168999999988
 31
0.0
  0
LINE
  5
6B6
  8
0
  6
CONTINUOUS
 62
     7
 10
566.44988999999987
 20
396.07168999999988
 30
0.0
 11
566.8499099999998
 21
396.07168999999988
 31
0.0
  0
LINE
  5
6B7
  8
0
  6
CONTINUOUS
 62
     7
 10
573.6499
 20
396.07168999999988
 30
0.0
 11
573.24987999999996
 21
396.07168999999988
 31
0.0
  0
LINE
  5
6B8
  8
0
  6
CONTINUOUS
 62
     7
 10
566.04993000000002
 20
427.07168999999999
 30
0.0
 11
566.04993000000002
 21
412.32168999999999
 31
0.0
  0
LINE
  5
6B9
  8
0
  6
CONTINUOUS
 62
     7
 10
566.04993000000002
 20
412.32168999999999
 30
0.0
 11
567.29992999999979
 21
411.07168999999988
 31
0.0
  0
LINE
  5
6BA
  8
0
  6
CONTINUOUS
 62
     7
 10
574.04993000000002
 20
427.07168999999999
 30
0.0
 11
574.04993000000002
 21
412.32168999999999
 31
0.0
  0
LINE
  5
6BB
  8
0
  6
CONTINUOUS
 62
     7
 10
574.04993000000002
 20
412.32168999999999
 30
0.0
 11
572.79993000000002
 21
411.07168999999988
 31
0.0
  0
LINE
  5
6BC
  8
0
  6
CONTINUOUS
 62
     7
 10
564.42493000000002
 20
438.32168999999988
 30
0.0
 11
575.67493000000002
 21
438.32168999999988
 31
0.0
  0
LINE
  5
6BD
  8
0
  6
CONTINUOUS
 62
     7
 10
564.42493000000002
 20
458.82168999999988
 30
0.0
 11
575.67493000000002
 21
458.82168999999988
 31
0.0
  0
LINE
  5
6BE
  8
0
  6
CONTINUOUS
 62
     3
 10
561.04992999999979
 20
469.57168999999988
 30
0.0
 11
561.04992999999979
 21
481.07168999999999
 31
0.0
  0
LINE
  5
6BF
  8
0
  6
CONTINUOUS
 62
     3
 10
579.04987000000006
 20
469.57168999999988
 30
0.0
 11
579.04987000000006
 21
481.07168999999999
 31
0.0
  0
LINE
  5
6C0
  8
0
  6
CONTINUOUS
 62
     3
 10
561.84990999999991
 20
480.07168999999999
 30
0.0
 11
578.24987999999985
 21
480.07168999999999
 31
0.0
  0
LINE
  5
6C1
  8
0
  6
CONTINUOUS
 62
     7
 10
561.44988999999998
 20
480.07168999999999
 30
0.0
 11
561.84990999999991
 21
480.07168999999999
 31
0.0
  0
LINE
  5
6C2
  8
0
  6
CONTINUOUS
 62
     7
 10
578.6499
 20
480.07168999999999
 30
0.0
 11
578.24987999999985
 21
480.07168999999999
 31
0.0
  0
LINE
  5
6C3
  8
0
  6
CONTINUOUS
 62
     7
 10
564.42493000000002
 20
453.88418999999999
 30
0.0
 11
567.54993000000002
 21
453.88418999999999
 31
0.0
  0
LINE
  5
6C4
  8
0
  6
CONTINUOUS
 62
     7
 10
564.42493000000002
 20
443.25918999999999
 30
0.0
 11
567.54993000000002
 21
443.25918999999999
 31
0.0
  0
LINE
  5
6C5
  8
0
  6
CENTER
 62
     4
 10
561.04992999999979
 20
468.57168999999999
 30
0.0
 11
561.04992999999979
 21
458.57168999999999
 31
0.0
  0
LINE
  5
6C6
  8
0
  6
CONTINUOUS
 62
     7
 10
566.29993000000002
 20
438.32168999999988
 30
0.0
 11
566.29993000000002
 21
443.25918999999999
 31
0.0
  0
LINE
  5
6C7
  8
0
  6
CONTINUOUS
 62
     7
 10
566.29993000000002
 20
458.82168999999988
 30
0.0
 11
566.29993000000002
 21
453.88418999999999
 31
0.0
  0
LINE
  5
6C8
  8
0
  6
CONTINUOUS
 62
     7
 10
567.54993000000002
 20
453.88418999999999
 30
0.0
 11
567.54993000000002
 21
438.32168999999988
 31
0.0
  0
LINE
  5
6C9
  8
0
  6
CONTINUOUS
 62
     3
 10
579.04987000000006
 20
469.57168999999988
 30
0.0
 11
579.04987000000006
 21
481.07168999999999
 31
0.0
  0
LINE
  5
6CA
  8
0
  6
CONTINUOUS
 62
     3
 10
583.04987000000006
 20
471.07168999999999
 30
0.0
 11
583.04987000000006
 21
481.07168999999999
 31
0.0
  0
LINE
  5
6CB
  8
0
  6
CONTINUOUS
 62
     3
 10
578.24987999999985
 20
480.07168999999999
 30
0.0
 11
577.44988999999998
 21
480.07168999999999
 31
0.0
  0
LINE
  5
6CC
  8
0
  6
CONTINUOUS
 62
     3
 10
583.8499099999998
 20
480.07168999999999
 30
0.0
 11
584.6499
 21
480.07168999999999
 31
0.0
  0
LINE
  5
6CD
  8
0
  6
CONTINUOUS
 62
     3
 10
579.04987000000006
 20
480.07168999999999
 30
0.0
 11
583.04987000000006
 21
480.07168999999999
 31
0.0
  0
LINE
  5
6CE
  8
0
  6
CONTINUOUS
 62
     7
 10
578.6499
 20
480.07168999999999
 30
0.0
 11
578.24987999999985
 21
480.07168999999999
 31
0.0
  0
LINE
  5
6CF
  8
0
  6
CONTINUOUS
 62
     7
 10
583.44988999999975
 20
480.07168999999999
 30
0.0
 11
583.8499099999998
 21
480.07168999999999
 31
0.0
  0
LINE
  5
6D0
  8
0
  6
CONTINUOUS
 62
     7
 10
578.04993000000002
 20
443.79043999999988
 30
0.0
 11
578.79993000000002
 21
444.54043999999999
 31
0.0
  0
LINE
  5
6D1
  8
0
  6
CONTINUOUS
 62
     7
 10
578.79993000000002
 20
437.04047000000003
 30
0.0
 11
578.04993000000002
 21
437.79047000000003
 31
0.0
  0
LINE
  5
6D2
  8
0
  6
CENTER
 62
     4
 10
574.04993000000002
 20
433.57168999999999
 30
0.0
 11
584.04987000000017
 21
433.57168999999999
 31
0.0
  0
LINE
  5
6D3
  8
0
  6
CENTER
 62
     4
 10
574.04993000000002
 20
463.57168999999999
 30
0.0
 11
584.04987000000017
 21
463.57168999999999
 31
0.0
  0
LINE
  5
6D4
  8
0
  6
CONTINUOUS
 62
     7
 10
578.04993000000002
 20
437.79043999999999
 30
0.0
 11
578.04993000000002
 21
443.79043999999988
 31
0.0
  0
LINE
  5
6D5
  8
0
  6
CONTINUOUS
 62
     7
 10
573.79993000000002
 20
442.97793999999999
 30
0.0
 11
578.04993000000002
 21
442.97793999999999
 31
0.0
  0
LINE
  5
6D6
  8
0
  6
CONTINUOUS
 62
     7
 10
573.79993000000002
 20
438.60293999999988
 30
0.0
 11
578.04993000000002
 21
438.60293999999988
 31
0.0
  0
LINE
  5
6D7
  8
0
  6
CONTINUOUS
 62
     7
 10
575.67493000000002
 20
443.25918999999999
 30
0.0
 11
572.54993000000002
 21
443.25918999999999
 31
0.0
  0
LINE
  5
6D8
  8
0
  6
CONTINUOUS
 62
     7
 10
573.79993000000002
 20
438.32168999999988
 30
0.0
 11
573.79993000000002
 21
443.25918999999999
 31
0.0
  0
LINE
  5
6D9
  8
0
  6
CONTINUOUS
 62
     7
 10
572.54993000000002
 20
453.88418999999999
 30
0.0
 11
572.54993000000002
 21
438.32168999999988
 31
0.0
  0
LINE
  5
6DA
  8
0
  6
CONTINUOUS
 62
     7
 10
575.67493000000002
 20
453.88418999999999
 30
0.0
 11
572.54993000000002
 21
453.88418999999999
 31
0.0
  0
LINE
  5
6DB
  8
0
  6
CONTINUOUS
 62
     7
 10
573.79993000000002
 20
458.82168999999988
 30
0.0
 11
573.79993000000002
 21
453.88418999999999
 31
0.0
  0
LINE
  5
6DC
  8
0
  6
CONTINUOUS
 62
     7
 10
575.67493000000002
 20
470.07168999999988
 30
0.0
 11
575.67493000000002
 21
458.54043999999988
 31
0.0
  0
LINE
  5
6DD
  8
0
  6
CONTINUOUS
 62
     7
 10
578.79987000000006
 20
437.04043999999988
 30
0.0
 11
578.79987000000006
 21
444.54043999999999
 31
0.0
  0
LINE
  5
6DE
  8
0
  6
CENTER
 62
     4
 10
579.04987000000006
 20
468.57168999999999
 30
0.0
 11
579.04987000000006
 21
458.57168999999999
 31
0.0
  0
LINE
  5
6DF
  8
0
  6
CONTINUOUS
 62
     7
 10
586.04987000000006
 20
437.04043999999988
 30
0.0
 11
586.04987000000006
 21
444.54043999999999
 31
0.0
  0
LINE
  5
6E0
  8
0
  6
CONTINUOUS
 62
     7
 10
586.04992999999979
 20
444.54043999999999
 30
0.0
 11
586.79993000000002
 21
443.79043999999988
 31
0.0
  0
LINE
  5
6E1
  8
0
  6
CONTINUOUS
 62
     7
 10
586.79987000000017
 20
437.79043999999999
 30
0.0
 11
586.04987000000006
 21
437.04041000000001
 31
0.0
  0
LINE
  5
6E2
  8
0
  6
CONTINUOUS
 62
     7
 10
586.79987000000017
 20
437.79043999999999
 30
0.0
 11
586.79987000000017
 21
443.79043999999988
 31
0.0
  0
LINE
  5
6E3
  8
0
  6
DASHED
 62
     6
 10
658.1337900000002
 20
438.32168999999988
 30
0.0
 11
658.1337900000002
 21
427.07168999999999
 31
0.0
  0
LINE
  5
6E4
  8
0
  6
CONTINUOUS
 62
     7
 10
656.63378999999975
 20
438.32168999999988
 30
0.0
 11
656.63378999999975
 21
427.07168999999999
 31
0.0
  0
LINE
  5
6E5
  8
0
  6
CONTINUOUS
 62
     7
 10
666.1337900000002
 20
470.07168999999988
 30
0.0
 11
666.1337900000002
 21
427.07168999999999
 31
0.0
  0
LINE
  5
6E6
  8
0
  6
CENTER
 62
     4
 10
662.1337900000002
 20
473.57393999999988
 30
0.0
 11
662.1337900000002
 21
408.48174999999981
 31
0.0
  0
LINE
  5
6E7
  8
0
  6
CONTINUOUS
 62
     7
 10
658.1337900000002
 20
412.32168999999999
 30
0.0
 11
666.1337900000002
 21
412.32168999999999
 31
0.0
  0
LINE
  5
6E8
  8
0
  6
CONTINUOUS
 62
     7
 10
659.3837900000002
 20
411.07168999999988
 30
0.0
 11
664.88379000000009
 21
411.07168999999988
 31
0.0
  0
LINE
  5
6E9
  8
0
  6
CONTINUOUS
 62
     7
 10
658.1337900000002
 20
412.32172000000003
 30
0.0
 11
659.3837900000002
 21
411.07168999999988
 31
0.0
  0
LINE
  5
6EA
  8
0
  6
CONTINUOUS
 62
     7
 10
658.1337900000002
 20
427.07168999999999
 30
0.0
 11
658.1337900000002
 21
412.32168999999999
 31
0.0
  0
LINE
  5
6EB
  8
0
  6
CONTINUOUS
 62
     7
 10
666.1337900000002
 20
412.32168999999999
 30
0.0
 11
664.88379000000009
 21
411.07168999999988
 31
0.0
  0
LINE
  5
6EC
  8
0
  6
CONTINUOUS
 62
     7
 10
666.1337900000002
 20
427.07168999999999
 30
0.0
 11
666.1337900000002
 21
412.32168999999999
 31
0.0
  0
LINE
  5
6ED
  8
0
  6
CONTINUOUS
 62
     7
 10
656.63378999999975
 20
443.25918999999999
 30
0.0
 11
658.1337900000002
 21
443.25918999999999
 31
0.0
  0
LINE
  5
6EE
  8
0
  6
CONTINUOUS
 62
     7
 10
656.63378999999975
 20
438.32168999999988
 30
0.0
 11
658.1337900000002
 21
438.32168999999988
 31
0.0
  0
LINE
  5
6EF
  8
0
  6
CONTINUOUS
 62
     7
 10
658.1337900000002
 20
443.25918999999999
 30
0.0
 11
658.1337900000002
 21
438.32168999999988
 31
0.0
  0
LINE
  5
6F0
  8
0
  6
CONTINUOUS
 62
     7
 10
656.63378999999975
 20
453.88418999999999
 30
0.0
 11
656.63378999999975
 21
443.25918999999999
 31
0.0
  0
LINE
  5
6F1
  8
0
  6
CONTINUOUS
 62
     7
 10
658.1337900000002
 20
458.82168999999988
 30
0.0
 11
658.1337900000002
 21
453.88418999999999
 31
0.0
  0
LINE
  5
6F2
  8
0
  6
DASHED
 62
     6
 10
658.1337900000002
 20
453.88418999999999
 30
0.0
 11
658.1337900000002
 21
443.25918999999999
 31
0.0
  0
LINE
  5
6F3
  8
0
  6
CONTINUOUS
 62
     7
 10
656.63378999999975
 20
458.82168999999988
 30
0.0
 11
658.1337900000002
 21
458.82168999999988
 31
0.0
  0
LINE
  5
6F4
  8
0
  6
CONTINUOUS
 62
     7
 10
656.63378999999975
 20
453.88418999999999
 30
0.0
 11
658.1337900000002
 21
453.88418999999999
 31
0.0
  0
LINE
  5
6F5
  8
0
  6
DASHED
 62
     6
 10
658.1337900000002
 20
470.07168999999988
 30
0.0
 11
658.1337900000002
 21
458.82168999999988
 31
0.0
  0
LINE
  5
6F6
  8
0
  6
CONTINUOUS
 62
     7
 10
656.63378999999975
 20
470.07168999999988
 30
0.0
 11
656.63378999999975
 21
458.82168999999988
 31
0.0
  0
LINE
  5
6F7
  8
0
  6
CONTINUOUS
 62
     7
 10
667.63378999999998
 20
470.07168999999988
 30
0.0
 11
667.63378999999998
 21
427.07168999999999
 31
0.0
  0
LINE
  5
6F8
  8
0
  6
CONTINUOUS
 62
     3
 10
666.1337900000002
 20
471.07168999999999
 30
0.0
 11
666.1337900000002
 21
481.07168999999999
 31
0.0
  0
LINE
  5
6F9
  8
0
  6
CONTINUOUS
 62
     3
 10
667.63378999999998
 20
471.07168999999999
 30
0.0
 11
667.63378999999998
 21
481.07168999999999
 31
0.0
  0
LINE
  5
6FA
  8
0
  6
CONTINUOUS
 62
     3
 10
665.33379999999966
 20
480.07168999999999
 30
0.0
 11
664.53375000000005
 21
480.07168999999999
 31
0.0
  0
LINE
  5
6FB
  8
0
  6
CONTINUOUS
 62
     3
 10
668.43377999999996
 20
480.07168999999999
 30
0.0
 11
676.07379000000003
 21
480.07168999999999
 31
0.0
  0
LINE
  5
6FC
  8
0
  6
CONTINUOUS
 62
     3
 10
666.1337900000002
 20
480.07168999999999
 30
0.0
 11
667.63378999999998
 21
480.07168999999999
 31
0.0
  0
LINE
  5
6FD
  8
0
  6
CONTINUOUS
 62
     7
 10
665.73375999999985
 20
480.07168999999999
 30
0.0
 11
665.33379999999966
 21
480.07168999999999
 31
0.0
  0
LINE
  5
6FE
  8
0
  6
CONTINUOUS
 62
     7
 10
668.03375000000017
 20
480.07168999999999
 30
0.0
 11
668.43377999999996
 21
480.07168999999999
 31
0.0
  0
LINE
  5
6FF
  8
0
  6
CONTINUOUS
 62
     3
 10
578.19439999999997
 20
461.43667999999991
 30
0.0
 11
579.90539999999987
 21
465.70670000000001
 31
0.0
  0
LINE
  5
700
  8
0
  6
CONTINUOUS
 62
     3
 10
580.20294000000001
 20
466.44927999999987
 30
0.0
 11
589.66820999999982
 21
490.07168999999988
 31
0.0
  0
LINE
  5
701
  8
0
  6
CONTINUOUS
 62
     3
 10
589.66814999999986
 20
490.07168999999988
 30
0.0
 11
623.64819
 21
490.07168999999988
 31
0.0
  0
LINE
  5
702
  8
0
  6
CONTINUOUS
 62
     7
 10
578.04565000000002
 20
461.06540000000001
 30
0.0
 11
578.19439999999997
 21
461.43667999999991
 31
0.0
  0
LINE
  5
703
  8
0
  6
CONTINUOUS
 62
     7
 10
580.05414000000007
 20
466.07794000000001
 30
0.0
 11
579.90539999999987
 21
465.70670000000001
 31
0.0
  0
LINE
  5
704
  8
0
  6
CONTINUOUS
 62
     7
 10
393.77667000000002
 20
306.08276000000001
 30
0.0
 11
813.77666999999985
 21
306.08276000000001
 31
0.0
  0
LINE
  5
705
  8
0
  6
CONTINUOUS
 62
     7
 10
393.77667000000002
 20
603.08276000000001
 30
0.0
 11
393.77667000000002
 21
306.08276000000001
 31
0.0
  0
LINE
  5
706
  8
0
  6
CONTINUOUS
 62
     7
 10
794.27666999999985
 20
318.08276000000001
 30
0.0
 11
794.27666999999985
 21
591.08276000000001
 31
0.0
  0
LINE
  5
707
  8
0
  6
CONTINUOUS
 62
     7
 10
413.27667000000002
 20
495.08275999999989
 30
0.0
 11
413.27667000000002
 21
318.83276000000001
 31
0.0
  0
LINE
  5
708
  8
0
  6
CONTINUOUS
 62
     7
 10
794.27666999999985
 20
591.08276000000001
 30
0.0
 11
523.27666999999985
 21
591.08276000000001
 31
0.0
  0
LINE
  5
709
  8
0
  6
CONTINUOUS
 62
     7
 10
413.27667000000002
 20
318.08276000000001
 30
0.0
 11
794.27666999999985
 21
318.08276000000001
 31
0.0
  0
LINE
  5
70A
  8
0
  6
CONTINUOUS
 62
     7
 10
813.77666999999985
 20
603.08276000000001
 30
0.0
 11
813.77666999999985
 21
306.08276000000001
 31
0.0
  0
LINE
  5
70B
  8
0
  6
CONTINUOUS
 62
     7
 10
393.77667000000002
 20
603.08276000000001
 30
0.0
 11
813.77666999999985
 21
603.08276000000001
 31
0.0
  0
LINE
  5
70C
  8
0
  6
CONTINUOUS
 62
     7
 10
413.27667000000002
 20
591.08276000000001
 30
0.0
 11
523.27666999999985
 21
591.08276000000001
 31
0.0
  0
LINE
  5
70D
  8
0
  6
CONTINUOUS
 62
     7
 10
413.27667000000002
 20
591.08276000000001
 30
0.0
 11
413.27667000000002
 21
495.08275999999989
 31
0.0
  0
LINE
  5
70E
  8
0
  6
CONTINUOUS
 62
     7
 10
433.27667000000002
 20
591.08276000000001
 30
0.0
 11
433.27667000000002
 21
495.08275999999989
 31
0.0
  0
LINE
  5
70F
  8
0
  6
CONTINUOUS
 62
     7
 10
413.27667000000002
 20
583.08276000000001
 30
0.0
 11
523.27666999999985
 21
583.08276000000001
 31
0.0
  0
LINE
  5
710
  8
0
  6
CONTINUOUS
 62
     7
 10
413.27667000000002
 20
575.08276000000001
 30
0.0
 11
523.27666999999985
 21
575.08276000000001
 31
0.0
  0
LINE
  5
711
  8
0
  6
CONTINUOUS
 62
     7
 10
413.27667000000002
 20
567.08275999999989
 30
0.0
 11
523.27666999999985
 21
567.08275999999989
 31
0.0
  0
LINE
  5
712
  8
0
  6
CONTINUOUS
 62
     7
 10
413.27667000000002
 20
559.08275999999989
 30
0.0
 11
523.27666999999985
 21
559.08275999999989
 31
0.0
  0
LINE
  5
713
  8
0
  6
CONTINUOUS
 62
     7
 10
433.27667000000002
 20
535.08276000000001
 30
0.0
 11
523.27666999999985
 21
535.08276000000001
 31
0.0
  0
LINE
  5
714
  8
0
  6
CONTINUOUS
 62
     7
 10
433.27667000000002
 20
527.08276000000001
 30
0.0
 11
523.27666999999985
 21
527.08276000000001
 31
0.0
  0
LINE
  5
715
  8
0
  6
CONTINUOUS
 62
     7
 10
413.27667000000002
 20
519.08276000000001
 30
0.0
 11
523.27666999999985
 21
519.08276000000001
 31
0.0
  0
LINE
  5
716
  8
0
  6
CONTINUOUS
 62
     7
 10
433.27667000000002
 20
511.08275999999989
 30
0.0
 11
523.27666999999985
 21
511.08275999999989
 31
0.0
  0
LINE
  5
717
  8
0
  6
CONTINUOUS
 62
     7
 10
433.27667000000002
 20
503.08275999999989
 30
0.0
 11
523.27666999999985
 21
503.08275999999989
 31
0.0
  0
LINE
  5
718
  8
0
  6
CONTINUOUS
 62
     7
 10
413.27667000000002
 20
495.08275999999989
 30
0.0
 11
523.27666999999985
 21
495.08275999999989
 31
0.0
  0
LINE
  5
719
  8
0
  6
CONTINUOUS
 62
     7
 10
413.27667000000002
 20
591.08276000000001
 30
0.0
 11
413.27667000000002
 21
495.08275999999989
 31
0.0
  0
LINE
  5
71A
  8
0
  6
CONTINUOUS
 62
     7
 10
413.27667000000002
 20
591.08276000000001
 30
0.0
 11
523.27666999999985
 21
591.08276000000001
 31
0.0
  0
LINE
  5
71B
  8
0
  6
CONTINUOUS
 62
     7
 10
523.27666999999985
 20
591.08276000000001
 30
0.0
 11
523.27666999999985
 21
495.08275999999989
 31
0.0
  0
LINE
  5
71C
  8
0
  6
CONTINUOUS
 62
     7
 10
413.27667000000002
 20
551.08275999999978
 30
0.0
 11
523.27666999999985
 21
551.08275999999978
 31
0.0
  0
LINE
  5
71D
  8
0
  6
CONTINUOUS
 62
     7
 10
413.27667000000002
 20
543.08275999999967
 30
0.0
 11
523.27666999999985
 21
543.08275999999967
 31
0.0
  0
LINE
  5
71E
  8
0
  6
CONTINUOUS
 62
     7
 10
433.27667000000002
 20
535.08276000000001
 30
0.0
 11
523.27666999999985
 21
535.08276000000001
 31
0.0
  0
LINE
  5
71F
  8
0
  6
CONTINUOUS
 62
     7
 10
621.7998
 20
459.88164999999981
 30
0.0
 11
621.02332000000001
 21
456.98388999999992
 31
0.0
  0
LINE
  5
720
  8
0
  6
CONTINUOUS
 62
     7
 10
621.7998
 20
459.88164999999981
 30
0.0
 11
622.57623000000001
 21
456.98385999999988
 31
0.0
  0
LINE
  5
721
  8
0
  6
CONTINUOUS
 62
     3
 10
662.1337900000002
 20
474.57393999999988
 30
0.0
 11
662.1337900000002
 21
481.07168999999999
 31
0.0
  0
LINE
  5
722
  8
0
  6
CONTINUOUS
 62
     3
 10
656.63378999999975
 20
471.07168999999999
 30
0.0
 11
656.63378999999975
 21
481.07168999999999
 31
0.0
  0
LINE
  5
723
  8
0
  6
CONTINUOUS
 62
     3
 10
661.33379999999966
 20
480.07168999999999
 30
0.0
 11
657.43377999999996
 21
480.07168999999999
 31
0.0
  0
LINE
  5
724
  8
0
  6
CONTINUOUS
 62
     3
 10
656.63378999999975
 20
480.07168999999999
 30
0.0
 11
648.22125000000005
 21
480.07168999999999
 31
0.0
  0
LINE
  5
725
  8
0
  6
CONTINUOUS
 62
     7
 10
661.73375999999985
 20
480.07168999999999
 30
0.0
 11
661.33379999999966
 21
480.07168999999999
 31
0.0
  0
LINE
  5
726
  8
0
  6
CONTINUOUS
 62
     7
 10
657.03375000000005
 20
480.07168999999999
 30
0.0
 11
657.43377999999996
 21
480.07168999999999
 31
0.0
  0
LINE
  5
727
  8
0
  6
CONTINUOUS
 62
     3
 10
586.79987000000017
 20
445.54043999999988
 30
0.0
 11
586.79987000000017
 21
452.91710999999998
 31
0.0
  0
LINE
  5
728
  8
0
  6
CONTINUOUS
 62
     3
 10
570.04993000000002
 20
445.54043999999988
 30
0.0
 11
570.04993000000002
 21
452.91710999999998
 31
0.0
  0
LINE
  5
729
  8
0
  6
CONTINUOUS
 62
     3
 10
570.8499099999998
 20
451.91710999999998
 30
0.0
 11
585.99987999999985
 21
451.91710999999998
 31
0.0
  0
LINE
  5
72A
  8
0
  6
CONTINUOUS
 62
     3
 10
586.79987000000017
 20
451.91710999999998
 30
0.0
 11
594.47919000000002
 21
451.91710999999998
 31
0.0
  0
LINE
  5
72B
  8
0
  6
CONTINUOUS
 62
     7
 10
570.44988999999987
 20
451.91710999999998
 30
0.0
 11
570.8499099999998
 21
451.91710999999998
 31
0.0
  0
LINE
  5
72C
  8
0
  6
CONTINUOUS
 62
     7
 10
586.39989999999966
 20
451.91710999999998
 30
0.0
 11
585.99987999999985
 21
451.91710999999998
 31
0.0
  0
LINE
  5
72D
  8
0
  6
CONTINUOUS
 62
     7
 10
583.04987000000006
 20
437.04043999999988
 30
0.0
 11
583.04987000000006
 21
427.07168999999999
 31
0.0
  0
LINE
  5
72E
  8
0
  6
CONTINUOUS
 62
     7
 10
575.67493000000002
 20
438.60293999999988
 30
0.0
 11
575.67493000000002
 21
427.07168999999999
 31
0.0
  0
CIRCLE
  5
72F
  8
0
  6
CONTINUOUS
 62
     7
 10
561.04992999999979
 20
433.57168999999999
 30
0.0
 40
1.6000000000000001
  0
CIRCLE
  5
730
  8
0
  6
CONTINUOUS
 62
     7
 10
561.04992999999979
 20
433.57168999999999
 30
0.0
 40
3.099999899999998
  0
CIRCLE
  5
731
  8
0
  6
CONTINUOUS
 62
     7
 10
579.04987000000006
 20
433.57168999999999
 30
0.0
 40
1.6000000000000001
  0
CIRCLE
  5
732
  8
0
  6
CONTINUOUS
 62
     7
 10
579.04987000000006
 20
433.57168999999999
 30
0.0
 40
3.099999899999998
  0
CIRCLE
  5
733
  8
0
  6
CONTINUOUS
 62
     7
 10
561.04992999999979
 20
463.57168999999999
 30
0.0
 40
3.099999899999998
  0
CIRCLE
  5
734
  8
0
  6
CONTINUOUS
 62
     7
 10
561.04992999999979
 20
463.57168999999999
 30
0.0
 40
1.6000000000000001
  0
CIRCLE
  5
735
  8
0
  6
CONTINUOUS
 62
     7
 10
579.04987000000006
 20
463.57168999999999
 30
0.0
 40
1.6000000000000001
  0
CIRCLE
  5
736
  8
0
  6
CONTINUOUS
 62
     7
 10
579.04987000000006
 20
463.57168999999999
 30
0.0
 40
3.099999899999998
  0
CIRCLE
  5
737
  8
0
  6
CONTINUOUS
 62
     7
 10
662.1337900000002
 20
441.02784499999979
 30
0.0
 40
3.0000075999999991
  0
CIRCLE
  5
738
  8
0
  6
CONTINUOUS
 62
     7
 10
662.1337900000002
 20
441.02784499999979
 30
0.0
 40
3.75
  0
TEXT
  5
739
  8
0
  6
CONTINUOUS
 62
     3
 10
557.98325999999986
 20
481.57168999999988
 30
0.0
 40
3.2000000000000002
  1
4
  0
TEXT
  5
73A
  8
0
  6
CONTINUOUS
 62
     3
 10
567.38325999999995
 20
491.57199999999989
 30
0.0
 40
3.2000000000000002
  1
26
  0
TEXT
  5
73B
  8
0
  6
CONTINUOUS
 62
     3
 10
659.46712000000002
 20
491.57168999999988
 30
0.0
 40
3.2000000000000002
  1
11
 41
1.5
  0
TEXT
  5
73C
  8
0
  6
CONTINUOUS
 62
     3
 10
610.29989
 20
444.56527
 30
0.0
 40
3.2000000000000002
  1
43
 50
90.000003000000007
  0
TEXT
  5
73D
  8
0
  6
CONTINUOUS
 62
     3
 10
620.29988999999978
 20
433.40904999999998
 30
0.0
 40
3.2000000000000002
  1
ストローク１６
 50
90.000003000000007
 41
0.9415100999999999
  0
TEXT
  5
73E
  8
0
  6
CONTINUOUS
 62
     3
 10
600.29989
 20
417.68904999999978
 30
0.0
 40
3.2000000000000002
  1
6.5
 50
90.000003000000007
 41
1.3333333000000001
  0
TEXT
  5
73F
  8
0
  6
CONTINUOUS
 62
     3
 10
600.29989
 20
445.90501999999998
 30
0.0
 40
3.2000000000000002
  1
30
 50
90.000003000000007
 41
1.0714285999999991
  0
TEXT
  5
740
  8
0
  6
CONTINUOUS
 62
     3
 10
600.29989
 20
471.31883999999991
 30
0.0
 40
3.2000000000000002
  1
6.5
 50
90.000003000000007
 41
1.3333333000000001
  0
TEXT
  5
741
  8
0
  6
CONTINUOUS
 62
     3
 10
567.07925999999975
 20
397.57168999999999
 30
0.0
 40
3.2000000000000002
  1
%%C８
 41
0.9361344700000001
  0
TEXT
  5
742
  8
0
  6
CONTINUOUS
 62
     3
 10
567.38325999999995
 20
481.57168999999988
 30
0.0
 40
3.2000000000000002
  1
18
 41
1.25
  0
TEXT
  5
743
  8
0
  6
CONTINUOUS
 62
     3
 10
579.98320000000001
 20
481.57168999999988
 30
0.0
 40
3.2000000000000002
  1
4
  0
TEXT
  5
744
  8
0
  6
CONTINUOUS
 62
     3
 10
668.38707999999997
 20
481.57168999999988
 30
0.0
 40
3.2000000000000002
  1
1.8
 41
1.6000000000000001
  0
TEXT
  5
745
  8
0
  6
CONTINUOUS
 62
     3
 10
585.72286999999994
 20
491.57199999999989
 30
0.0
 40
3.2000000000000002
  1
４－%%C３．２×%%C６．２サラ
 41
0.8991596299999999
  0
TEXT
  5
746
  8
0
  6
CONTINUOUS
 62
     2
 10
393.77668999999992
 20
306.08276000000001
 30
0.0
 40
2.5
  1
!GENTITLE-LL
 41
1.09375
  0
TEXT
  5
747
  8
0
  6
CONTINUOUS
 62
     2
 10
794.27669000000003
 20
591.08276000000001
 30
0.0
 40
2.5
  1
!GENTITLE-RU
 41
1.09375
  0
TEXT
  5
748
  8
0
  6
CONTINUOUS
 62
     2
 10
413.27667000000002
 20
591.08276000000001
 30
0.0
 40
2.5
  1
!GENTITLE-INSERT
 41
1.0930233
  0
TEXT
  5
749
  8
0
  6
CONTINUOUS
 62
     2
 10
813.77666999999985
 20
603.08276000000001
 30
0.0
 40
2.5
  1
!GENTITLE-MAX
 41
1.0857143
  0
TEXT
  5
74A
  8
0
  6
CONTINUOUS
 62
     7
 10
419.50519000000003
 20
587.08277999999984
 30
0.0
 40
3.2000000000000002
  1
品　名
 41
0.60999997
  0
TEXT
  5
74B
  8
0
  6
CONTINUOUS
 62
     7
 10
419.50519000000003
 20
579.08277999999984
 30
0.0
 40
3.2000000000000002
  1
品　番
 41
0.60999997
  0
TEXT
  5
74C
  8
0
  6
CONTINUOUS
 62
     7
 10
419.50519000000003
 20
571.08277999999984
 30
0.0
 40
3.2000000000000002
  1
材　質
 41
0.60999997
  0
TEXT
  5
74D
  8
0
  6
CONTINUOUS
 62
     7
 10
419.50519000000003
 20
563.08277999999984
 30
0.0
 40
3.2000000000000002
  1
仕上げ
 41
0.60999997
  0
TEXT
  5
74E
  8
0
  6
CONTINUOUS
 62
     7
 10
416.30516999999992
 20
539.08277999999984
 30
0.0
 40
3.2000000000000002
  1
セットビス
 41
0.6099999900000001
  0
TEXT
  5
74F
  8
0
  6
CONTINUOUS
 62
     7
 10
421.10516999999987
 20
515.08277999999996
 30
0.0
 40
3.2000000000000002
  1
備考
 41
0.61
  0
TEXT
  5
750
  8
0
  6
CONTINUOUS
 62
     7
 10
419.50519000000003
 20
555.08277999999984
 30
0.0
 40
3.2000000000000002
  1
定　尺
 41
0.60999997
  0
TEXT
  5
751
  8
0
  6
CONTINUOUS
 62
     7
 10
417.90517
 20
547.08277999999984
 30
0.0
 40
3.2000000000000002
  1
左右勝手
 41
0.60999998
  0
TEXT
  5
752
  8
0
  6
CONTINUOUS
 62
     7
 10
436.70518999999979
 20
585.4828
 30
0.0
 40
3.2000000000000002
  1
アルミ落し
 41
0.74999999
  0
TEXT
  5
753
  8
0
  6
CONTINUOUS
 62
     7
 10
436.70517000000001
 20
577.4828
 30
0.0
 40
3.2000000000000002
  1
ＤＬ－１５２
 41
0.75
  0
TEXT
  5
754
  8
0
  6
CONTINUOUS
 62
     7
 10
436.70518999999979
 20
569.4828
 30
0.0
 40
3.2000000000000002
  1
アルミ
 41
0.7499999600000004
  0
TEXT
  5
755
  8
0
  6
CONTINUOUS
 62
     7
 10
436.70518999999979
 20
561.4828
 30
0.0
 40
3.2000000000000002
  1
アルマイト
 41
0.74999999
  0
TEXT
  5
756
  8
0
  6
CONTINUOUS
 62
     7
 10
436.70517000000001
 20
545.4828
 30
0.0
 40
3.2000000000000002
  1
無し
 41
0.74999999
  0
TEXT
  5
757
  8
0
  6
CONTINUOUS
 62
     3
 10
647.76085999999987
 20
481.57168999999988
 30
0.0
 40
3.2000000000000002
  1
5.5
 41
1.3333333000000001
  0
TEXT
  5
758
  8
0
  6
CONTINUOUS
 62
     3
 10
588.71248000000003
 20
453.41712000000001
 30
0.0
 40
3.2000000000000002
  1
14
 41
1.25
  0
INSERT
  5
759
  8
0
  6
CONTINUOUS
 62
     7
  2
KOZU0001
 10
561.04992999999979
 20
480.07168999999999
 30
0.0
  0
INSERT
  5
75A
  8
0
  6
CONTINUOUS
 62
     7
  2
KOZU0002
 10
557.04993000000002
 20
480.07168999999999
 30
0.0
  0
INSERT
  5
75B
  8
0
  6
CONTINUOUS
 62
     7
  2
KOZU0003
 10
557.04993000000002
 20
490.07168999999988
 30
0.0
  0
INSERT
  5
75C
  8
0
  6
CONTINUOUS
 62
     7
  2
KOZU0004
 10
583.04987000000006
 20
490.07168999999988
 30
0.0
  0
INSERT
  5
75D
  8
0
  6
CONTINUOUS
 62
     7
  2
KOZU0005
 10
656.63378999999975
 20
490.07168999999988
 30
0.0
  0
INSERT
  5
75E
  8
0
  6
CONTINUOUS
 62
     7
  2
KOZU0006
 10
667.63378999999998
 20
490.07168999999988
 30
0.0
  0
INSERT
  5
75F
  8
0
  6
CONTINUOUS
 62
     7
  2
KOZU0007
 10
611.79987000000017
 20
427.07168999999999
 30
0.0
  0
INSERT
  5
760
  8
0
  6
CONTINUOUS
 62
     7
  2
KOZU0008
 10
611.79987000000017
 20
470.07168999999988
 30
0.0
  0
INSERT
  5
761
  8
0
  6
CONTINUOUS
 62
     7
  2
KOZU0009
 10
621.79987000000006
 20
411.07168999999988
 30
0.0
  0
INSERT
  5
762
  8
0
  6
CONTINUOUS
 62
     7
  2
KOZU0010
 10
621.79987000000006
 20
411.07168999999988
 30
0.0
  0
INSERT
  5
763
  8
0
  6
CONTINUOUS
 62
     7
  2
KOZU0011
 10
601.79987000000006
 20
433.57168999999999
 30
0.0
  0
INSERT
  5
764
  8
0
  6
CONTINUOUS
 62
     7
  2
KOZU0012
 10
601.79987000000006
 20
427.07168999999999
 30
0.0
  0
INSERT
  5
765
  8
0
  6
CONTINUOUS
 62
     7
  2
KOZU0013
 10
601.79987000000006
 20
463.57168999999999
 30
0.0
  0
INSERT
  5
766
  8
0
  6
CONTINUOUS
 62
     7
  2
KOZU0014
 10
601.79987000000006
 20
433.57168999999999
 30
0.0
  0
INSERT
  5
767
  8
0
  6
CONTINUOUS
 62
     7
  2
KOZU0015
 10
601.79987000000006
 20
463.57168999999999
 30
0.0
  0
INSERT
  5
768
  8
0
  6
CONTINUOUS
 62
     7
  2
KOZU0016
 10
601.79987000000006
 20
470.07168999999988
 30
0.0
  0
INSERT
  5
769
  8
0
  6
CONTINUOUS
 62
     7
  2
KOZU0017
 10
566.04993000000002
 20
396.07168999999988
 30
0.0
  0
INSERT
  5
76A
  8
0
  6
CONTINUOUS
 62
     7
  2
KOZU0018
 10
574.04993000000002
 20
396.07168999999988
 30
0.0
  0
INSERT
  5
76B
  8
0
  6
CONTINUOUS
 62
     7
  2
KOZU0019
 10
561.04992999999979
 20
480.07168999999999
 30
0.0
  0
INSERT
  5
76C
  8
0
  6
CONTINUOUS
 62
     7
  2
KOZU0020
 10
579.04987000000006
 20
480.07168999999999
 30
0.0
  0
INSERT
  5
76D
  8
0
  6
CONTINUOUS
 62
     7
  2
KOZU0021
 10
579.04987000000006
 20
480.07168999999999
 30
0.0
  0
INSERT
  5
76E
  8
0
  6
CONTINUOUS
 62
     7
  2
KOZU0022
 10
583.04987000000006
 20
480.07168999999999
 30
0.0
  0
INSERT
  5
76F
  8
0
  6
CONTINUOUS
 62
     7
  2
KOZU0023
 10
666.1337900000002
 20
480.07168999999999
 30
0.0
  0
INSERT
  5
770
  8
0
  6
CONTINUOUS
 62
     7
  2
KOZU0024
 10
667.63378999999998
 20
480.07168999999999
 30
0.0
  0
INSERT
  5
771
  8
0
  6
CONTINUOUS
 62
     7
  2
KOZU0025
 10
577.89684999999963
 20
460.69409000000002
 30
0.0
  0
INSERT
  5
772
  8
0
  6
CONTINUOUS
 62
     7
  2
KOZU0026
 10
580.20294000000001
 20
466.44927999999987
 30
0.0
  0
INSERT
  5
773
  8
0
  6
CONTINUOUS
 62
     7
  2
KOZU0027
 10
662.1337900000002
 20
480.07168999999999
 30
0.0
  0
INSERT
  5
774
  8
0
  6
CONTINUOUS
 62
     7
  2
KOZU0028
 10
656.63378999999975
 20
480.07168999999999
 30
0.0
  0
INSERT
  5
775
  8
0
  6
CONTINUOUS
 62
     7
  2
KOZU0029
 10
570.04993000000002
 20
451.91710999999998
 30
0.0
  0
INSERT
  5
776
  8
0
  6
CONTINUOUS
 62
     7
  2
KOZU0030
 10
586.79987000000017
 20
451.91710999999998
 30
0.0
  0
LINE
  5
777
  8
0
  6
CENTER
 62
     4
 10
654.95068500000014
 20
441.02784499999979
 30
0.0
 11
669.31689500000005
 21
441.02784499999979
 31
0.0
  0
LINE
  5
778
  8
0
  6
CONTINUOUS
 10
664.88379000000009
 20
453.88418999999999
 30
0.0
 11
664.88379000000009
 21
458.82168999999988
 31
0.0
  0
LINE
  5
779
  8
0
  6
CONTINUOUS
 10
658.1337900000002
 20
458.82168999999988
 30
0.0
 11
666.1337900000002
 21
458.82168999999988
 31
0.0
  0
LINE
  5
77A
  8
0
  6
CONTINUOUS
 10
658.1337900000002
 20
453.88418999999999
 30
0.0
 11
666.1337900000002
 21
453.88418999999999
 31
0.0
  0
LINE
  5
77C
  8
0
  6
CONTINUOUS
 10
658.1337900000002
 20
443.25918999999999
 30
0.0
 11
659.11988895799936
 21
443.25918999999999
 31
0.0
  0
LINE
  5
77D
  8
0
  6
CONTINUOUS
 10
658.1337900000002
 20
438.32168999999988
 30
0.0
 11
659.53778824422727
 21
438.32168999999982
 31
0.0
  0
LINE
  5
780
  8
0
  6
CONTINUOUS
 10
664.72979175577302
 20
438.32168999999982
 30
0.0
 11
666.1337900000002
 21
438.32168999999982
 31
0.0
  0
LINE
  5
783
  8
0
  6
CONTINUOUS
 10
665.14769104200104
 20
443.25918999999999
 30
0.0
 11
666.1337900000002
 21
443.25918999999999
 31
0.0
  0
ENDSEC
  0
EOF
