  0
SECTION
  2
HEADER
  9
$ACADVER
  1
AC1009
  9
$INSBASE
 10
0.0
 20
0.0
 30
0.0
  9
$EXTMIN
 10
-211.01948971655219
 20
-100.01666183488371
 30
-0.0000000349181948
  9
$EXTMAX
 10
46.664337536140351
 20
173.0166643774717
 30
0.0000000814935747
  9
$LIMMIN
 10
0.0
 20
0.0
  9
$LIMMAX
 10
12.0
 20
9.0
  9
$ORTHOMODE
 70
     0
  9
$REGENMODE
 70
     1
  9
$FILLMODE
 70
     1
  9
$QTEXTMODE
 70
     0
  9
$MIRRTEXT
 70
     1
  9
$DRAGMODE
 70
     2
  9
$LTSCALE
 40
1.0
  9
$OSMODE
 70
    37
  9
$ATTMODE
 70
     1
  9
$TEXTSIZE
 40
0.2
  9
$TRACEWID
 40
0.05
  9
$TEXTSTYLE
  7
STANDARD
  9
$CLAYER
  8
0
  9
$CELTYPE
  6
CONTINUOUS
  9
$CECOLOR
 62
   256
  9
$DIMSCALE
 40
1.0
  9
$DIMASZ
 40
0.18
  9
$DIMEXO
 40
0.0625
  9
$DIMDLI
 40
0.38
  9
$DIMRND
 40
0.0
  9
$DIMDLE
 40
0.0
  9
$DIMEXE
 40
0.18
  9
$DIMTP
 40
0.0
  9
$DIMTM
 40
0.0
  9
$DIMTXT
 40
0.18
  9
$DIMCEN
 40
0.09
  9
$DIMTSZ
 40
0.0
  9
$DIMTOL
 70
     0
  9
$DIMLIM
 70
     0
  9
$DIMTIH
 70
     1
  9
$DIMTOH
 70
     1
  9
$DIMSE1
 70
     0
  9
$DIMSE2
 70
     0
  9
$DIMTAD
 70
     0
  9
$DIMZIN
 70
     0
  9
$DIMBLK
  1

  9
$DIMASO
 70
     1
  9
$DIMSHO
 70
     1
  9
$DIMPOST
  1

  9
$DIMAPOST
  1

  9
$DIMALT
 70
     0
  9
$DIMALTD
 70
     2
  9
$DIMALTF
 40
25.399999999999999
  9
$DIMLFAC
 40
1.0
  9
$DIMTOFL
 70
     0
  9
$DIMTVP
 40
0.0
  9
$DIMTIX
 70
     0
  9
$DIMSOXD
 70
     0
  9
$DIMSAH
 70
     0
  9
$DIMBLK1
  1

  9
$DIMBLK2
  1

  9
$DIMSTYLE
  2
STANDARD
  9
$DIMCLRD
 70
     0
  9
$DIMCLRE
 70
     0
  9
$DIMCLRT
 70
     0
  9
$DIMTFAC
 40
1.0
  9
$DIMGAP
 40
0.09
  9
$LUNITS
 70
     2
  9
$LUPREC
 70
     4
  9
$SKETCHINC
 40
0.1
  9
$FILLETRAD
 40
0.0
  9
$AUNITS
 70
     0
  9
$AUPREC
 70
     0
  9
$MENU
  1
.
  9
$ELEVATION
 40
0.0
  9
$PELEVATION
 40
0.0
  9
$THICKNESS
 40
0.0
  9
$LIMCHECK
 70
     0
  9
$BLIPMODE
 70
     0
  9
$CHAMFERA
 40
0.0
  9
$CHAMFERB
 40
0.0
  9
$SKPOLY
 70
     0
  9
$TDCREATE
 40
2452865.45580331
  9
$TDUPDATE
 40
2452865.4764507292
  9
$TDINDWG
 40
0.0030871991
  9
$TDUSRTIMER
 40
0.0030868403
  9
$USRTIMER
 70
     1
  9
$ANGBASE
 50
0.0
  9
$ANGDIR
 70
     0
  9
$PDMODE
 70
     0
  9
$PDSIZE
 40
0.0
  9
$PLINEWID
 40
0.0
  9
$COORDS
 70
     1
  9
$SPLFRAME
 70
     0
  9
$SPLINETYPE
 70
     6
  9
$SPLINESEGS
 70
     8
  9
$ATTDIA
 70
     1
  9
$ATTREQ
 70
     1
  9
$HANDLING
 70
     1
  9
$HANDSEED
  5
5BC
  9
$SURFTAB1
 70
     6
  9
$SURFTAB2
 70
     6
  9
$SURFTYPE
 70
     6
  9
$SURFU
 70
     6
  9
$SURFV
 70
     6
  9
$UCSNAME
  2

  9
$UCSORG
 10
0.0
 20
0.0
 30
0.0
  9
$UCSXDIR
 10
1.0
 20
0.0
 30
0.0
  9
$UCSYDIR
 10
0.0
 20
1.0
 30
0.0
  9
$PUCSNAME
  2

  9
$PUCSORG
 10
0.0
 20
0.0
 30
0.0
  9
$PUCSXDIR
 10
1.0
 20
0.0
 30
0.0
  9
$PUCSYDIR
 10
0.0
 20
1.0
 30
0.0
  9
$USERI1
 70
     0
  9
$USERI2
 70
     0
  9
$USERI3
 70
     0
  9
$USERI4
 70
     0
  9
$USERI5
 70
     0
  9
$USERR1
 40
0.0
  9
$USERR2
 40
0.0
  9
$USERR3
 40
0.0
  9
$USERR4
 40
0.0
  9
$USERR5
 40
0.0
  9
$WORLDVIEW
 70
     1
  9
$SHADEDGE
 70
     3
  9
$SHADEDIF
 70
    70
  9
$TILEMODE
 70
     1
  9
$MAXACTVP
 70
    64
  9
$PLIMCHECK
 70
     0
  9
$PEXTMIN
 10
1.0000000000000000E+020
 20
1.0000000000000000E+020
 30
1.0000000000000000E+020
  9
$PEXTMAX
 10
-1.0000000000000000E+020
 20
-1.0000000000000000E+020
 30
-1.0000000000000000E+020
  9
$PLIMMIN
 10
0.0
 20
0.0
  9
$PLIMMAX
 10
12.0
 20
9.0
  9
$UNITMODE
 70
     0
  9
$VISRETAIN
 70
     1
  9
$PLINEGEN
 70
     0
  9
$PSLTSCALE
 70
     1
  0
ENDSEC
  0
SECTION
  2
TABLES
  0
TABLE
  2
VPORT
 70
     3
  0
VPORT
  2
*ACTIVE
 70
     0
 10
0.0
 20
0.0
 11
1.0
 21
1.0
 12
-82.177576094481537
 22
44.750426140275522
 13
0.0
 23
0.0
 14
1.0
 24
1.0
 15
0.0
 25
0.0
 16
0.0
 26
0.0
 36
1.0
 17
0.0
 27
0.0
 37
0.0
 40
275.01422141636158
 41
1.3099273607748181
 42
50.0
 43
0.0
 44
0.0
 50
0.0
 51
0.0
 71
     0
 72
   100
 73
     1
 74
     1
 75
     0
 76
     0
 77
     0
 78
     0
  0
ENDTAB
  0
TABLE
  2
LTYPE
 70
    19
  0
LTYPE
  2
CONTINUOUS
 70
     0
  3
Solid line
 72
    65
 73
     0
 40
0.0
  0
LTYPE
  2
DASHED
 70
     0
  3
__ __ __ __ __ __ __ __ __ __ __ __ __ __ __
 72
    65
 73
     2
 40
3.5
 49
2.0
 49
-1.5
  0
LTYPE
  2
CENTER
 70
     0
  3
____ _ ____ _ ____ _ ____ _ ____ _ ____ _ ____
 72
    65
 73
     4
 40
17.5
 49
13.0
 49
-1.5
 49
1.5
 49
-1.5
  0
LTYPE
  2
PHANTOM
 70
     0
  3
_____ _ _ _____ _ _ _____ _ _ _____ _ _ ____  
 72
    65
 73
     6
 40
15.5
 49
8.0
 49
-1.5
 49
1.5
 49
-1.5
 49
1.5
 49
-1.5
  0
LTYPE
  2
DOT
 70
     0
  3
. . . . . . . . . . . . . . . . . . . . . . . .
 72
    65
 73
     2
 40
0.25
 49
0.0
 49
-0.25
  0
LTYPE
  2
AM_ISO02W050
 70
     0
  3
__ __ __ __ __ __ __ __ __ __ __ __ __ __ __
 72
    65
 73
     2
 40
7.5
 49
6.0
 49
-1.5
  0
LTYPE
  2
AM_ISO08W050
 70
     0
  3
____ . ____ . ____ . ____ . ____ . ____ . ____
 72
    65
 73
     4
 40
18.0
 49
12.0
 49
-1.5
 49
3.0
 49
-1.5
  0
LTYPE
  2
AM_ISO09W050
 70
     0
  3
_____ . . _____ . . _____ . . ____ .. ____
 72
    65
 73
     6
 40
22.5
 49
12.0
 49
-1.5
 49
3.0
 49
-1.5
 49
3.0
 49
-1.5
  0
LTYPE
  2
AMCONSTR
 70
     0
  3
_______________________
 72
    65
 73
     2
 40
9999.0
 49
9999.0
 49
0.0
  0
LTYPE
  2
AM_ISO08W050X2
 70
     0
  3
__ . __ . __ . __ . __ . __
 72
    65
 73
     4
 40
9.0
 49
6.0
 49
-0.75
 49
1.5
 49
-0.75
  0
LTYPE
  2
AM_ISO02W050X2
 70
     0
  3
 _ _ _ _ _ _ _ _ _ _ _ _
 72
    65
 73
     2
 40
3.75
 49
3.0
 49
-0.75
  0
LTYPE
  2
AMZIGZAG
 70
     0
  3
/\/-/\/-/\/-/\/-/\/-/\/
 72
    65
 73
     2
 40
11.000099999999991
 49
0.0001
 49
-11.0
  0
LTYPE
  2
HIDDEN
 70
     0
  3
Hidden __ __ __ __ __ __ __ __ __ __ __ __ __ _
 72
    65
 73
     2
 40
0.375
 49
0.25
 49
-0.125
  0
LTYPE
  2
PHANTOM2
 70
     0
  3
Phantom (.5x) ___ _ _ ___ _ _ ___ _ _ ___ _ _
 72
    65
 73
     6
 40
1.25
 49
0.625
 49
-0.125
 49
0.125
 49
-0.125
 49
0.125
 49
-0.125
  0
LTYPE
  2
CENTER2
 70
     0
  3
Center (.5x) ___ _ ___ _ ___ _ ___ _ ___ _ ___
 72
    65
 73
     4
 40
1.125
 49
0.75
 49
-0.125
 49
0.125
 49
-0.125
  0
LTYPE
  2
HIDDEN2
 70
     0
  3
Hidden (.5x) _ _ _ _ _ _ _ _ _ _ _ _ _ _ _ _ _
 72
    65
 73
     2
 40
0.1875
 49
0.125
 49
-0.0625
  0
LTYPE
  2
AMZIGZAG2
 70
     0
  3
/\/-/\/-/\/-/\/-/\/-/\/
 72
    65
 73
     2
 40
0.4401
 49
0.0001
 49
-0.4400000000000002
  0
LTYPE
  2
ACANSTGB
 70
     0
  3
__ . . __ . .
 72
    65
 73
     6
 40
0.35433070866
 49
0.15748031496
 49
-0.03937007874
 49
0.03937007874
 49
-0.03937007874
 49
0.03937007874
 49
-0.03937007874
  0
LTYPE
  2
ACANSTGL
 70
     0
  3
_ _ _ _ _
 72
    65
 73
     2
 40
0.11811023622
 49
0.07874015748
 49
-0.03937007874
  0
ENDTAB
  0
TABLE
  2
LAYER
 70
     3
  0
LAYER
  2
0
 70
     0
 62
     7
  6
CONTINUOUS
  0
LAYER
  2
1
 70
     0
 62
     7
  6
CONTINUOUS
  0
LAYER
  2
2
 70
     0
 62
     7
  6
CONTINUOUS
  0
ENDTAB
  0
TABLE
  2
STYLE
 70
     4
  0
STYLE
  2
STANDARD
 70
     0
 40
0.0
 41
1.0
 50
0.0
 71
     0
 42
0.2
  3
txt
  4
BIGFONT
  0
STYLE
  2

 70
     1
 40
0.0
 41
1.0
 50
0.0
 71
     0
 42
0.2
  3
ltypeshp.shx
  4

  0
STYLE
  2
ACANSTS
 70
     0
 40
1.0
 41
1.0
 50
0.0
 71
     0
 42
0.2
  3
romans.shx
  4
extfont.shx
  0
STYLE
  2
ACANSGDT
 70
     0
 40
0.0
 41
1.0
 50
0.0
 71
     0
 42
0.2
  3
amgdtans.shx
  4

  0
ENDTAB
  0
TABLE
  2
VIEW
 70
     0
  0
ENDTAB
  0
TABLE
  2
UCS
 70
     0
  0
ENDTAB
  0
TABLE
  2
APPID
 70
     4
  0
APPID
  2
ACAD
 70
     0
  0
APPID
  2
MCAD_NO_VIS
 70
     0
  0
APPID
  2
ACAD_TEMP_GRAPHIC
 70
     0
  0
APPID
  2
ACATTRIBSERVICES
 70
     0
  0
ENDTAB
  0
TABLE
  2
DIMSTYLE
 70
     7
  0
DIMSTYLE
  2
STANDARD
 70
     0
  3

  4

  5

  6

  7

 40
1.0
 41
0.18
 42
0.0625
 43
0.38
 44
0.18
 45
0.0
 46
0.0
 47
0.0
 48
0.0
140
0.18
141
0.09
142
0.0
143
25.399999999999999
144
1.0
145
0.0
146
1.0
147
0.09
 71
     0
 72
     0
 73
     1
 74
     1
 75
     0
 76
     0
 77
     0
 78
     0
170
     0
171
     2
172
     0
173
     0
174
     0
175
     0
176
     0
177
     0
178
     0
  0
DIMSTYLE
  2
AM_ANSI
 70
     0
  3

  4
mm
  5

  6

  7

 40
1.0
 41
0.1
 42
0.05
 43
0.5
 44
0.1
 45
0.0
 46
0.0
 47
0.1
 48
0.1
140
0.12
141
0.0
142
0.0
143
25.399999999999999
144
1.0
145
0.0
146
0.71
147
0.06
 71
     0
 72
     0
 73
     1
 74
     1
 75
     0
 76
     0
 77
     0
 78
     7
170
     0
171
     2
172
     0
173
     0
174
     0
175
     0
176
   256
177
   256
178
     2
  0
DIMSTYLE
  2
AM_ANSI$3
 70
     0
  3

  4
mm
  5

  6

  7

 40
1.0
 41
0.1
 42
0.05
 43
0.5
 44
0.1
 45
0.0
 46
0.0
 47
0.1
 48
0.1
140
0.12
141
0.0
142
0.0
143
25.399999999999999
144
1.0
145
0.0
146
0.71
147
0.06
 71
     0
 72
     0
 73
     1
 74
     1
 75
     0
 76
     0
 77
     0
 78
     7
170
     0
171
     2
172
     0
173
     0
174
     0
175
     0
176
   256
177
   256
178
     2
  0
DIMSTYLE
  2
AM_ANSI$4
 70
     0
  3

  4
mm
  5

  6

  7

 40
1.0
 41
0.1
 42
0.05
 43
0.5
 44
0.1
 45
0.0
 46
0.0
 47
0.1
 48
0.1
140
0.12
141
0.0
142
0.0
143
25.399999999999999
144
1.0
145
0.0
146
0.71
147
0.06
 71
     0
 72
     0
 73
     1
 74
     1
 75
     0
 76
     0
 77
     0
 78
     7
170
     0
171
     2
172
     0
173
     0
174
     0
175
     0
176
   256
177
   256
178
     2
  0
DIMSTYLE
  2
AM_ANSI$7
 70
     0
  3

  4
mm
  5

  6

  7

 40
1.0
 41
0.1
 42
0.05
 43
0.5
 44
0.1
 45
0.0
 46
0.0
 47
0.1
 48
0.1
140
0.24
141
0.0
142
0.0
143
25.399999999999999
144
1.0
145
0.0
146
0.71
147
0.06
 71
     0
 72
     0
 73
     1
 74
     1
 75
     0
 76
     0
 77
     0
 78
     7
170
     0
171
     2
172
     0
173
     0
174
     0
175
     0
176
   256
177
   256
178
     2
  0
DIMSTYLE
  2
AM_ANSI$SF
 70
     0
  3

  4
mm
  5

  6

  7

 40
1.0
 41
0.1
 42
0.05
 43
0.5
 44
0.1
 45
0.0
 46
0.0
 47
0.1
 48
0.1
140
0.12
141
0.0
142
0.0
143
25.399999999999999
144
1.0
145
0.0
146
0.71
147
0.06
 71
     0
 72
     0
 73
     1
 74
     1
 75
     1
 76
     1
 77
     0
 78
     7
170
     0
171
     2
172
     0
173
     0
174
     0
175
     0
176
   256
177
   256
178
     2
  0
DIMSTYLE
  2
AM_ANSI$SH
 70
     0
  3

  4
mm
  5

  6

  7

 40
1.0
 41
0.1
 42
0.05
 43
0.5
 44
0.1
 45
0.0
 46
0.0
 47
0.1
 48
0.1
140
0.12
141
0.0
142
0.0
143
25.399999999999999
144
1.0
145
0.0
146
0.71
147
0.06
 71
     0
 72
     0
 73
     1
 74
     1
 75
     1
 76
     1
 77
     0
 78
     7
170
     0
171
     2
172
     0
173
     1
174
     0
175
     0
176
   256
177
   256
178
     2
  0
ENDTAB
  0
ENDSEC
  0
SECTION
  2
BLOCKS
  0
BLOCK
  8
0
  2
$MODEL_SPACE
 70
     0
 10
0.0
 20
0.0
 30
0.0
  3
$MODEL_SPACE
  1

  0
ENDBLK
  5
548
  8
0
  0
BLOCK
 67
     1
  8
0
  2
$PAPER_SPACE
 70
     0
 10
0.0
 20
0.0
 30
0.0
  3
$PAPER_SPACE
  1

  0
ENDBLK
  5
544
 67
     1
  8
0
  0
BLOCK
  8
0
  2
GENAXEH
 70
     0
 10
0.0
 20
0.0
 30
0.0
  3
GENAXEH
  1

  0
LINE
  5
50E
  8
0
 10
-1.0
 20
0.0
 30
0.0
 11
1.0
 21
0.0
 31
0.0
  0
ENDBLK
  5
510
  8
0
  0
ENDSEC
  0
SECTION
  2
ENTITIES
  0
LINE
  5
137
  8
0
  6
CENTER
 62
     7
 10
-104.8455899999999
 20
153.61409
 30
0.0
 11
-104.8455899999999
 21
20.473372000000001
 31
0.0
  0
LINE
  5
138
  8
0
  6
CONTINUOUS
 62
     7
 10
25.154411
 20
93.902236999999985
 30
0.0
 11
25.154411
 21
85.784035000000003
 31
0.0
  0
LINE
  5
139
  8
0
  6
CONTINUOUS
 62
     7
 10
-139.84558000000001
 20
-4.7778872999999979
 30
0.0
 11
-139.84558000000001
 21
-22.777886999999989
 31
0.0
  0
LINE
  5
13A
  8
0
  6
CONTINUOUS
 62
     7
 10
-139.84558000000001
 20
-22.777886999999989
 30
0.0
 11
-133.70975000000001
 21
-23.124946999999992
 31
0.0
  0
LINE
  5
13B
  8
0
  6
CONTINUOUS
 62
     7
 10
-139.84559999999991
 20
-4.7778878000000002
 30
0.0
 11
-119.8455899999999
 21
-3.6466333999999989
 31
0.0
  0
LINE
  5
13C
  8
0
  6
CONTINUOUS
 62
     7
 10
-99.220580999999996
 20
103.74851
 30
0.0
 11
-78.595580999999981
 21
95.405288999999996
 31
0.0
  0
LINE
  5
13D
  8
0
  6
CONTINUOUS
 62
     7
 10
-99.220589000000004
 20
75.937766999999994
 30
0.0
 11
-78.595589000000004
 21
84.280991
 31
0.0
  0
LINE
  5
13E
  8
0
  6
CONTINUOUS
 62
     7
 10
-61.709468999999991
 20
81.237221000000005
 30
0.0
 11
23.214386000000001
 21
83.784935000000004
 31
0.0
  0
LINE
  5
13F
  8
0
  6
CONTINUOUS
 62
     7
 10
23.214386000000001
 20
95.901336999999998
 30
0.0
 11
-61.709465000000002
 21
98.449050999999997
 31
0.0
  0
LINE
  5
140
  8
0
  6
CONTINUOUS
 62
     7
 10
-86.944267000000025
 20
103.9748799999999
 30
0.0
 11
-97.035911999999996
 21
108.25533
 31
0.0
  0
LINE
  5
141
  8
0
  6
CONTINUOUS
 62
     7
 10
-86.944275000000005
 20
75.711387999999985
 30
0.0
 11
-97.035911999999996
 21
71.430938999999995
 31
0.0
  0
LINE
  5
142
  8
0
  6
CENTER
 62
     7
 10
-89.845589000000004
 20
97.685485999999997
 30
0.0
 11
-89.845589000000004
 21
81.805762999999999
 31
0.0
  0
LINE
  5
143
  8
0
  6
CENTER
 62
     7
 10
-169.97303999999991
 20
89.843140000000005
 30
0.0
 11
30.316177
 21
89.843140000000005
 31
0.0
  0
LINE
  5
144
  8
0
  6
CONTINUOUS
 62
     7
 10
-124.8455899999999
 20
-29.777886999999989
 30
0.0
 11
-84.845589000000004
 21
-29.777886999999989
 31
0.0
  0
LINE
  5
145
  8
0
  6
CONTINUOUS
 62
     7
 10
-74.845589000000004
 20
0.22211264
 30
0.0
 11
7.0188832000000003
 21
0.22211264
 31
0.0
  0
LINE
  5
146
  8
0
  6
CONTINUOUS
 62
     7
 10
12.728588
 20
-1.5681816
 30
0.0
 11
23.867322999999988
 21
-9.3149756999999997
 31
0.0
  0
LINE
  5
147
  8
0
  6
CONTINUOUS
 62
     7
 10
5.7784757999999981
 20
-11.889772000000001
 30
0.0
 11
21.625
 21
-14.730805
 31
0.0
  0
LINE
  5
148
  8
0
  6
CONTINUOUS
 62
     7
 10
-73.743636999999978
 20
-17.695242
 30
0.0
 11
4.5221729000000011
 21
-11.825305999999991
 31
0.0
  0
LINE
  5
149
  8
0
  6
CONTINUOUS
 62
     7
 10
-119.8455899999999
 20
-2.7778873000000002
 30
0.0
 11
-119.8455899999999
 21
-3.6466330999999981
 31
0.0
  0
LINE
  5
14A
  8
0
  6
CONTINUOUS
 62
     7
 10
-119.8455899999999
 20
-2.7778871000000001
 30
0.0
 11
-74.845589000000004
 21
0.22211286
 31
0.0
  0
LINE
  5
14B
  8
0
  6
CENTER
 62
     7
 10
-176.8863399999999
 20
-13.77788699999998
 30
0.0
 11
-136.39676
 21
-13.77788699999998
 31
0.0
  0
LINE
  5
14C
  8
0
  6
PHANTOM
 62
     7
 10
-95.845589000000004
 20
124.8431499999998
 30
0.0
 11
-95.112876999999997
 21
111.8892399999999
 31
0.0
  0
LINE
  5
14D
  8
0
  6
PHANTOM
 62
     7
 10
-95.845589000000004
 20
124.84313999999991
 30
0.0
 11
-113.8455899999998
 21
124.84313999999991
 31
0.0
  0
LINE
  5
14E
  8
0
  6
PHANTOM
 62
     7
 10
-113.8455899999998
 20
124.84313999999991
 30
0.0
 11
-114.5782899999999
 21
111.8892399999999
 31
0.0
  0
LINE
  5
14F
  8
0
  6
CONTINUOUS
 62
     7
 10
-129.84558000000001
 20
-59.777889000000002
 30
0.0
 11
-55.845589000000011
 21
-59.777889000000002
 31
0.0
  0
LINE
  5
150
  8
0
  6
CONTINUOUS
 62
     7
 10
-129.84558000000001
 20
-53.777889000000002
 30
0.0
 11
-55.845589000000011
 21
-53.777889000000002
 31
0.0
  0
LINE
  5
151
  8
0
  6
CONTINUOUS
 62
     7
 10
-84.845589000000004
 20
-29.777886999999989
 30
0.0
 11
-83.925453000000005
 21
-51.86114899999999
 31
0.0
  0
LINE
  5
152
  8
0
  6
CONTINUOUS
 62
     7
 10
-124.8455899999999
 20
-29.777886999999989
 30
0.0
 11
-125.76572
 21
-51.86114899999999
 31
0.0
  0
LINE
  5
153
  8
0
  6
CENTER
 62
     7
 10
-92.845589000000004
 20
130.3024299999999
 30
0.0
 11
-92.845589000000004
 21
40.272315999999989
 31
0.0
  0
LINE
  5
154
  8
0
  6
CONTINUOUS
 62
     7
 10
-129.84558000000001
 20
-53.777889000000002
 30
0.0
 11
-129.84558000000001
 21
-59.777889000000002
 31
0.0
  0
LINE
  5
155
  8
0
  6
CONTINUOUS
 62
     7
 10
-55.845589000000011
 20
-53.777889000000002
 30
0.0
 11
-55.845589000000011
 21
-59.777889000000002
 31
0.0
  0
LINE
  5
156
  8
0
  6
CENTER
 62
     7
 10
-107.0486499999999
 20
62.343136000000001
 30
0.0
 11
-92.229767000000024
 21
62.343136000000001
 31
0.0
  0
LINE
  5
157
  8
0
  6
CENTER
 62
     7
 10
-99.845589000000004
 20
69.653258999999991
 30
0.0
 11
-99.845589000000004
 21
55.167381000000013
 31
0.0
  0
LINE
  5
158
  8
0
  6
CENTER
 62
     7
 10
-99.845589000000004
 20
124.65326
 30
0.0
 11
-99.845589000000004
 21
110.16737999999989
 31
0.0
  0
LINE
  5
159
  8
0
  6
CENTER
 62
     7
 10
-64.845589000000004
 20
97.153259000000006
 30
0.0
 11
-64.845589000000004
 21
82.667381000000006
 31
0.0
  0
LINE
  5
15A
  8
0
  6
CENTER
 62
     7
 10
-107.0486499999999
 20
117.34313999999991
 30
0.0
 11
-92.229767000000024
 21
117.34313999999991
 31
0.0
  0
LINE
  5
15B
  8
0
  6
CENTER
 62
     7
 10
-104.8455899999999
 20
5.9803920000000002
 30
0.0
 11
-104.8455899999999
 21
-65.838233999999986
 31
0.0
  0
LINE
  5
15C
  8
0
  6
PHANTOM
 62
     7
 10
-95.845589000000004
 20
149.84313999999981
 30
0.0
 11
-113.8455899999998
 21
149.84313999999981
 31
0.0
  0
LINE
  5
15D
  8
0
  6
CONTINUOUS
 62
     7
 10
-164.84558000000001
 20
-4.7778872999999979
 30
0.0
 11
-164.84558000000001
 21
-22.777886999999989
 31
0.0
  0
LINE
  5
15E
  8
0
  6
CENTER
 62
     7
 10
-89.845589000000004
 20
5.3819145999999991
 30
0.0
 11
-89.845589000000004
 21
-2.6030202
 31
0.0
  0
LINE
  5
15F
  8
0
  6
CONTINUOUS
 62
     7
 10
-95.345589000000004
 20
3.6221127999999991
 30
0.0
 11
-84.345589000000004
 21
3.6221127999999991
 31
0.0
  0
LINE
  5
160
  8
0
  6
CONTINUOUS
 62
     7
 10
-83.845589000000004
 20
3.1221125000000001
 30
0.0
 11
-83.845589000000004
 21
-0.37788737
 31
0.0
  0
LINE
  5
161
  8
0
  6
CONTINUOUS
 62
     7
 10
-95.845589000000004
 20
3.1221125000000001
 30
0.0
 11
-95.845589000000004
 21
-1.1778872999999981
 31
0.0
  0
LINE
  5
162
  8
0
  6
CONTINUOUS
 62
     7
 10
-84.345589000000004
 20
3.6221131999999989
 30
0.0
 11
-83.845589000000004
 21
3.1221125000000001
 31
0.0
  0
LINE
  5
163
  8
0
  6
CONTINUOUS
 62
     7
 10
-95.345589000000004
 20
3.6221111000000001
 30
0.0
 11
-95.845589000000004
 21
3.1221103999999991
 31
0.0
  0
LINE
  5
164
  8
0
  6
CONTINUOUS
 62
     7
 10
-164.84558000000001
 20
98.843140000000005
 30
0.0
 11
-164.84558000000001
 21
80.843140000000005
 31
0.0
  0
LINE
  5
165
  8
0
  6
CONTINUOUS
 62
     7
 10
-139.84558000000001
 20
98.843140000000005
 30
0.0
 11
-139.84558000000001
 21
80.843140000000005
 31
0.0
  0
LINE
  5
166
  8
0
  6
CONTINUOUS
 62
     7
 10
-139.84558000000001
 20
98.843140000000005
 30
0.0
 11
-126.8917
 21
99.575844000000004
 31
0.0
  0
LINE
  5
167
  8
0
  6
CONTINUOUS
 62
     7
 10
-139.84558000000001
 20
80.843140000000005
 30
0.0
 11
-126.89169
 21
80.110434999999967
 31
0.0
  0
ARC
  5
200
  8
0
  6
CONTINUOUS
 62
     7
 10
-104.8455899999999
 20
89.843140000000005
 30
0.0
 40
20.0
 50
67.015398000000005
 51
138.91142999999991
  0
ARC
  5
201
  8
0
  6
CONTINUOUS
 62
     7
 10
-127.4564199999998
 20
109.55988000000001
 30
0.0
 40
10.0
 50
273.23736000000002
 51
318.91142999999988
  0
ARC
  5
202
  8
0
  6
CONTINUOUS
 62
     7
 10
-127.4564199999998
 20
70.126389000000003
 30
0.0
 40
10.0
 50
41.088574000000001
 51
86.762643000000025
  0
ARC
  5
203
  8
0
  6
CONTINUOUS
 62
     7
 10
-104.8455899999999
 20
89.843140000000005
 30
0.0
 40
15.0
 50
67.975689000000017
 51
292.02429999999993
  0
ARC
  5
204
  8
0
  6
CONTINUOUS
 62
     7
 10
-104.8455899999999
 20
89.843140000000005
 30
0.0
 40
20.0
 50
221.08857
 51
292.98459999999989
  0
ARC
  5
205
  8
0
  6
CONTINUOUS
 62
     7
 10
-80.845589000000004
 20
89.843140000000005
 30
0.0
 40
6.0
 50
292.02431000000001
 51
67.975689000000017
  0
ARC
  5
206
  8
0
  6
CONTINUOUS
 62
     7
 10
23.154411
 20
93.902236999999985
 30
0.0
 40
2.0
 50
0.0
 51
88.281643000000003
  0
ARC
  5
207
  8
0
  6
CONTINUOUS
 62
     7
 10
23.154411
 20
85.784035000000003
 30
0.0
 40
2.0
 50
271.71836000000002
 51
0.0
  0
ARC
  5
208
  8
0
  6
CONTINUOUS
 62
     7
 10
-59.610413000000001
 20
168.4175699999999
 30
0.0
 40
70.0
 50
247.01539999999989
 51
268.28163999999992
  0
ARC
  5
209
  8
0
  6
CONTINUOUS
 62
     7
 10
-59.610413000000001
 20
11.268700000000001
 30
0.0
 40
70.0
 50
91.718355000000003
 51
112.9845999999999
  0
ARC
  5
20A
  8
0
  6
CONTINUOUS
 62
     7
 10
22.154411
 20
-11.777887
 30
0.0
 40
3.0
 50
259.83575000000002
 51
55.182068000000008
  0
ARC
  5
20B
  8
0
  6
CONTINUOUS
 62
     7
 10
-72.846153000000001
 20
-29.661632999999991
 30
0.0
 40
12.0
 50
94.289156000000006
 51
180.5550799999998
  0
ARC
  5
20C
  8
0
  6
CONTINUOUS
 62
     7
 10
-134.27446
 20
-33.108989999999999
 30
0.0
 40
10.0
 50
19.457657999999999
 51
86.762643000000025
  0
ARC
  5
20D
  8
0
  6
CONTINUOUS
 62
     7
 10
4.8961228999999991
 20
-16.811301999999991
 30
0.0
 40
5.0
 50
79.835751999999999
 51
94.289156000000006
  0
ARC
  5
20E
  8
0
  6
CONTINUOUS
 62
     7
 10
7.0188832000000003
 20
-9.7778872999999997
 30
0.0
 40
10.0
 50
55.182068000000008
 51
90.000003000000007
  0
ARC
  5
20F
  8
0
  6
CONTINUOUS
 62
     7
 10
-81.92718499999998
 20
-51.777889000000002
 30
0.0
 40
2.0
 50
182.38594000000001
 51
270.0
  0
ARC
  5
210
  8
0
  6
CONTINUOUS
 62
     7
 10
-127.76399000000001
 20
-51.777889000000002
 30
0.0
 40
2.0
 50
270.0
 51
357.61405999999999
  0
ARC
  5
211
  8
0
  6
CONTINUOUS
 62
     7
 10
-92.845589000000004
 20
89.843140000000005
 30
0.0
 40
37.0
 50
13.21657199999999
 51
164.9012699999999
  0
CIRCLE
  5
212
  8
0
  6
CONTINUOUS
 62
     7
 10
-99.845589000000004
 20
62.343136000000001
 30
0.0
 40
3.25
  0
CIRCLE
  5
213
  8
0
  6
CONTINUOUS
 62
     7
 10
-99.845589000000004
 20
62.343136000000001
 30
0.0
 40
6.1999997999999987
  0
CIRCLE
  5
214
  8
0
  6
CONTINUOUS
 62
     7
 10
-99.845589000000004
 20
117.34313999999991
 30
0.0
 40
6.1999997999999987
  0
CIRCLE
  5
215
  8
0
  6
CONTINUOUS
 62
     7
 10
-99.845589000000004
 20
117.34313999999991
 30
0.0
 40
3.25
  0
CIRCLE
  5
216
  8
0
  6
DASHED
 62
     7
 10
-64.845589000000004
 20
89.843140000000005
 30
0.0
 40
6.1999997999999987
  0
CIRCLE
  5
217
  8
0
  6
DASHED
 62
     7
 10
-64.845589000000004
 20
89.843140000000005
 30
0.0
 40
3.25
  0
ARC
  5
21A
  8
0
  6
CONTINUOUS
 62
     7
 10
-92.845589000000004
 20
89.843140000000005
 30
0.0
 40
37.0
 50
195.0987299999999
 51
346.78343000000001
  0
ARC
  5
21E
  8
0
  6
CONTINUOUS
 62
     7
 10
-104.8455899999999
 20
89.843140000000005
 30
0.0
 40
21.0
 50
49.262610000000002
 51
148.87411
  0
ARC
  5
21F
  8
0
  6
CONTINUOUS
 62
     7
 10
-104.8455899999999
 20
89.843140000000005
 30
0.0
 40
21.0
 50
211.12589
 51
310.73739
  0
ARC
  5
221
  8
0
  6
PHANTOM
 62
     7
 10
-36.22058899999999
 20
137.34313999999981
 30
0.0
 40
78.625
 50
170.85216
 51
189.14784
  0
ARC
  5
222
  8
0
  6
PHANTOM
 62
     7
 10
-173.47058000000001
 20
137.34313999999981
 30
0.0
 40
78.625
 50
350.85216000000003
 51
9.1478423000000006
  0
ARC
  5
223
  8
0
  6
CONTINUOUS
 62
     7
 10
-152.34558000000001
 20
-82.402884999999998
 30
0.0
 40
78.625
 50
80.852158999999986
 51
99.147846000000015
  0
ARC
  5
224
  8
0
  6
CONTINUOUS
 62
     7
 10
-152.34558000000001
 20
54.847110999999998
 30
0.0
 40
78.625
 50
260.85214999999999
 51
279.14783999999992
  0
CIRCLE
  5
225
  8
0
  6
CONTINUOUS
 62
     7
 10
-89.845589000000004
 20
89.843140000000005
 30
0.0
 40
6.0
  0
ARC
  5
226
  8
0
  6
CONTINUOUS
 62
     7
 10
-152.34558000000001
 20
21.218137999999989
 30
0.0
 40
78.625
 50
80.852158999999986
 51
99.147846000000015
  0
ARC
  5
227
  8
0
  6
CONTINUOUS
 62
     7
 10
-152.34558000000001
 20
158.46813999999981
 30
0.0
 40
78.625
 50
260.85214999999999
 51
279.14783999999992
  0
CIRCLE
  5
417
  8
0
  6
CONTINUOUS
 62
     7
 10
-101.47059
 20
114.52856
 30
0.0
 40
0.4000000100000002
  0
CIRCLE
  5
418
  8
0
  6
CONTINUOUS
 62
     7
 10
-98.220589000000004
 20
120.15772
 30
0.0
 40
0.4000000100000002
  0
CIRCLE
  5
419
  8
0
  6
CONTINUOUS
 62
     7
 10
-96.745590000000021
 20
122.7124899999999
 30
0.0
 40
0.4000000100000002
  0
TEXT
  5
41A
  8
0
  6
CONTINUOUS
 62
     7
 10
-63.94760999999999
 20
-11.520745
 30
0.0
 40
3.2000000000000002
  1
18
 50
90.000003000000007
 41
1.2857145000000001
  0
LINE
  5
41B
  8
0
  6
CONTINUOUS
 62
     7
 10
-63.14761
 20
-17.777887
 30
0.0
 11
-63.14761
 21
-8.7778873999999991
 31
0.0
  0
CIRCLE
  5
41C
  8
0
  6
CONTINUOUS
 62
     7
 10
-63.14761
 20
-17.777887
 30
0.0
 40
0.3
  0
LINE
  5
41D
  8
0
  6
CONTINUOUS
 62
     7
 10
-63.14761
 20
0.22211264
 30
0.0
 11
-63.14761
 21
-8.7778873999999991
 31
0.0
  0
CIRCLE
  5
41E
  8
0
  6
CONTINUOUS
 62
     7
 10
-63.14761
 20
0.22211264
 30
0.0
 40
0.3
  0
LINE
  5
41F
  8
0
  6
CONTINUOUS
 62
     7
 10
-74.845589000000004
 20
-17.777887
 30
0.0
 11
-61.64761
 21
-17.777887
 31
0.0
  0
LINE
  5
420
  8
0
  6
CONTINUOUS
 62
     7
 10
-74.845589000000004
 20
0.22211264
 30
0.0
 11
-61.64761
 21
0.22211264
 31
0.0
  0
TEXT
  5
421
  8
0
  6
CONTINUOUS
 62
     7
 10
-186.1644899999998
 20
-32.520744999999991
 30
0.0
 40
3.2000000000000002
  1
60
 50
90.000003000000007
 41
1.102041
  0
LINE
  5
422
  8
0
  6
CONTINUOUS
 62
     7
 10
-185.3644899999999
 20
-59.777889000000002
 30
0.0
 11
-185.3644899999999
 21
-29.777888000000001
 31
0.0
  0
CIRCLE
  5
423
  8
0
  6
CONTINUOUS
 62
     7
 10
-185.3644899999999
 20
-59.777889000000002
 30
0.0
 40
0.3
  0
LINE
  5
424
  8
0
  6
CONTINUOUS
 62
     7
 10
-185.3644899999999
 20
0.22211264
 30
0.0
 11
-185.3644899999999
 21
-29.777888000000001
 31
0.0
  0
CIRCLE
  5
425
  8
0
  6
CONTINUOUS
 62
     7
 10
-185.3644899999999
 20
0.22211264
 30
0.0
 40
0.3
  0
LINE
  5
426
  8
0
  6
CONTINUOUS
 62
     7
 10
-132.2925185899588
 20
-59.777889000000002
 30
0.0
 11
-186.8644899999999
 21
-59.777889000000002
 31
0.0
  0
LINE
  5
427
  8
0
  6
CONTINUOUS
 62
     7
 10
-80.574061228807963
 20
0.2221126400000007
 30
0.0
 11
-186.8644899999999
 21
0.22211264
 31
0.0
  0
TEXT
  5
428
  8
0
  6
CONTINUOUS
 62
     7
 10
-175.64557999999991
 20
-39.520747
 30
0.0
 40
3.2000000000000002
  1
46
 50
90.000003000000007
 41
1.0285716
  0
LINE
  5
429
  8
0
  6
CONTINUOUS
 62
     7
 10
-174.84558000000001
 20
-59.777889000000002
 30
0.0
 11
-174.84558000000001
 21
-36.777887999999997
 31
0.0
  0
CIRCLE
  5
42A
  8
0
  6
CONTINUOUS
 62
     7
 10
-174.84558000000001
 20
-59.777889000000002
 30
0.0
 40
0.3
  0
LINE
  5
42B
  8
0
  6
CONTINUOUS
 62
     7
 10
-174.84558000000001
 20
-13.77788699999998
 30
0.0
 11
-174.84558000000001
 21
-36.777887999999997
 31
0.0
  0
CIRCLE
  5
42C
  8
0
  6
CONTINUOUS
 62
     7
 10
-174.84558000000001
 20
-13.77788699999998
 30
0.0
 40
0.3
  0
TEXT
  5
42D
  8
0
  6
CONTINUOUS
 62
     7
 10
-175.64557999999991
 20
-9.5207450999999992
 30
0.0
 40
3.2000000000000002
  1
14
 50
90.000003000000007
 41
1.2857145000000001
  0
LINE
  5
42E
  8
0
  6
CONTINUOUS
 62
     7
 10
-174.84558000000001
 20
-13.77788699999998
 30
0.0
 11
-174.84558000000001
 21
-6.7778874
 31
0.0
  0
CIRCLE
  5
42F
  8
0
  6
CONTINUOUS
 62
     7
 10
-174.84558000000001
 20
-13.77788699999998
 30
0.0
 40
0.3
  0
LINE
  5
430
  8
0
  6
CONTINUOUS
 62
     7
 10
-174.84558000000001
 20
0.22211264
 30
0.0
 11
-174.84558000000001
 21
-6.7778874
 31
0.0
  0
CIRCLE
  5
431
  8
0
  6
CONTINUOUS
 62
     7
 10
-174.84558000000001
 20
0.22211264
 30
0.0
 40
0.3
  0
TEXT
  5
432
  8
0
  6
CONTINUOUS
 62
     7
 10
44.354410999999999
 20
-45.920746999999999
 30
0.0
 40
3.2000000000000002
  1
〃
 50
90.000003000000007
 41
0.90036055
  0
LINE
  5
433
  8
0
  6
CONTINUOUS
 62
     7
 10
45.154410999999989
 20
-59.777889000000002
 30
0.0
 11
45.154410999999989
 21
-44.77788799999999
 31
0.0
  0
CIRCLE
  5
434
  8
0
  6
CONTINUOUS
 62
     7
 10
45.154410999999989
 20
-59.777889000000002
 30
0.0
 40
0.3
  0
LINE
  5
435
  8
0
  6
CONTINUOUS
 62
     7
 10
45.154410999999989
 20
-29.777886999999989
 30
0.0
 11
45.154410999999989
 21
-44.77788799999999
 31
0.0
  0
CIRCLE
  5
436
  8
0
  6
CONTINUOUS
 62
     7
 10
45.154410999999989
 20
-29.777886999999989
 30
0.0
 40
0.3
  0
LINE
  5
437
  8
0
  6
CONTINUOUS
 62
     7
 10
-51.542510989931102
 20
-59.777889000000002
 30
0.0
 11
46.654410999999982
 21
-59.777889000000002
 31
0.0
  0
LINE
  5
438
  8
0
  6
CONTINUOUS
 62
     7
 10
-84.845589000000004
 20
-29.777886999999989
 30
0.0
 11
46.654410999999982
 21
-29.777886999999989
 31
0.0
  0
TEXT
  5
439
  8
0
  6
CONTINUOUS
 62
     7
 10
44.354410999999999
 20
-15.920745
 30
0.0
 40
3.2000000000000002
  1
〃
 50
90.000003000000007
 41
0.90036055
  0
LINE
  5
43A
  8
0
  6
CONTINUOUS
 62
     7
 10
45.154410999999989
 20
-29.777886999999989
 30
0.0
 11
45.154410999999989
 21
-14.777887
 31
0.0
  0
CIRCLE
  5
43B
  8
0
  6
CONTINUOUS
 62
     7
 10
45.154410999999989
 20
-29.777886999999989
 30
0.0
 40
0.3
  0
LINE
  5
43C
  8
0
  6
CONTINUOUS
 62
     7
 10
45.154410999999989
 20
0.22211264
 30
0.0
 11
45.154410999999989
 21
-14.777887
 31
0.0
  0
CIRCLE
  5
43D
  8
0
  6
CONTINUOUS
 62
     7
 10
45.154410999999989
 20
0.22211264
 30
0.0
 40
0.3
  0
LINE
  5
43E
  8
0
  6
CONTINUOUS
 62
     7
 10
11.015289524251431
 20
0.22211264
 30
0.0
 11
46.654410999999982
 21
0.22211264
 31
0.0
  0
TEXT
  5
43F
  8
0
  6
CONTINUOUS
 62
     7
 10
34.354410999999999
 20
-40.020747
 30
0.0
 40
3.2000000000000002
  1
45
 50
90.000003000000007
 41
1.0285716
  0
LINE
  5
440
  8
0
  6
CONTINUOUS
 62
     7
 10
35.154410999999982
 20
-59.777889000000002
 30
0.0
 11
35.154410999999982
 21
-37.27788799999999
 31
0.0
  0
CIRCLE
  5
441
  8
0
  6
CONTINUOUS
 62
     7
 10
35.154410999999982
 20
-59.777889000000002
 30
0.0
 40
0.3
  0
LINE
  5
442
  8
0
  6
CONTINUOUS
 62
     7
 10
35.154410999999982
 20
-14.777887
 30
0.0
 11
35.154410999999982
 21
-37.27788799999999
 31
0.0
  0
CIRCLE
  5
443
  8
0
  6
CONTINUOUS
 62
     7
 10
35.154410999999982
 20
-14.777887
 30
0.0
 40
0.3
  0
LINE
  5
444
  8
0
  6
CONTINUOUS
 62
     7
 10
25.154411
 20
-14.777887
 30
0.0
 11
36.654410999999982
 21
-14.777887
 31
0.0
  0
TEXT
  5
445
  8
0
  6
CONTINUOUS
 62
     7
 10
34.354410999999999
 20
-10.02074499999998
 30
0.0
 40
3.2000000000000002
  1
15
 50
90.000003000000007
 41
1.2857145000000001
  0
LINE
  5
446
  8
0
  6
CONTINUOUS
 62
     7
 10
35.154410999999982
 20
-14.777887
 30
0.0
 11
35.154410999999982
 21
-7.2778874
 31
0.0
  0
CIRCLE
  5
447
  8
0
  6
CONTINUOUS
 62
     7
 10
35.154410999999982
 20
-14.777887
 30
0.0
 40
0.3
  0
LINE
  5
448
  8
0
  6
CONTINUOUS
 62
     7
 10
35.154410999999982
 20
0.22211264
 30
0.0
 11
35.154410999999982
 21
-7.2778874
 31
0.0
  0
CIRCLE
  5
449
  8
0
  6
CONTINUOUS
 62
     7
 10
35.154410999999982
 20
0.22211264
 30
0.0
 40
0.3
  0
TEXT
  5
44A
  8
0
  6
CONTINUOUS
 62
     7
 10
-137.58843999999991
 20
23.643138
 30
0.0
 40
3.2000000000000002
  1
60
 41
1.102041
  0
LINE
  5
44B
  8
0
  6
CONTINUOUS
 62
     7
 10
-164.84558000000001
 20
22.843138
 30
0.0
 11
-134.84558000000001
 21
22.843138
 31
0.0
  0
CIRCLE
  5
44C
  8
0
  6
CONTINUOUS
 62
     7
 10
-164.84558000000001
 20
22.843138
 30
0.0
 40
0.3
  0
LINE
  5
44D
  8
0
  6
CONTINUOUS
 62
     7
 10
-104.8455899999999
 20
22.843138
 30
0.0
 11
-134.84558000000001
 21
22.843138
 31
0.0
  0
CIRCLE
  5
44E
  8
0
  6
CONTINUOUS
 62
     7
 10
-104.8455899999999
 20
22.843138
 30
0.0
 40
0.3
  0
LINE
  5
44F
  8
0
  6
CONTINUOUS
 62
     7
 10
-164.84558000000001
 20
80.843140000000005
 30
0.0
 11
-164.84558000000001
 21
21.343138
 31
0.0
  0
TEXT
  5
450
  8
0
  6
CONTINUOUS
 62
     7
 10
-44.188445999999992
 20
23.643138
 30
0.0
 40
3.2000000000000002
  1
130
 41
1.221428699999999
  0
LINE
  5
451
  8
0
  6
CONTINUOUS
 62
     7
 10
-104.8455899999999
 20
22.843138
 30
0.0
 11
-39.84558899999999
 21
22.843138
 31
0.0
  0
CIRCLE
  5
452
  8
0
  6
CONTINUOUS
 62
     7
 10
-104.8455899999999
 20
22.843138
 30
0.0
 40
0.3
  0
LINE
  5
453
  8
0
  6
CONTINUOUS
 62
     7
 10
25.154411
 20
22.843138
 30
0.0
 11
-39.84558899999999
 21
22.843138
 31
0.0
  0
CIRCLE
  5
454
  8
0
  6
CONTINUOUS
 62
     7
 10
25.154411
 20
22.843138
 30
0.0
 40
0.3
  0
LINE
  5
455
  8
0
  6
CONTINUOUS
 62
     7
 10
25.154411
 20
85.784035000000003
 30
0.0
 11
25.154411
 21
21.343138
 31
0.0
  0
TEXT
  5
456
  8
0
  6
CONTINUOUS
 62
     7
 10
-155.08843999999991
 20
33.643135999999998
 30
0.0
 40
3.2000000000000002
  1
25
 41
1.0285716
  0
LINE
  5
457
  8
0
  6
CONTINUOUS
 62
     7
 10
-164.84558000000001
 20
32.843136000000001
 30
0.0
 11
-152.34558000000001
 21
32.843136000000001
 31
0.0
  0
CIRCLE
  5
458
  8
0
  6
CONTINUOUS
 62
     7
 10
-164.84558000000001
 20
32.843136000000001
 30
0.0
 40
0.3
  0
LINE
  5
459
  8
0
  6
CONTINUOUS
 62
     7
 10
-139.84558000000001
 20
32.843136000000001
 30
0.0
 11
-152.34558000000001
 21
32.843136000000001
 31
0.0
  0
CIRCLE
  5
45A
  8
0
  6
CONTINUOUS
 62
     7
 10
-139.84558000000001
 20
32.843136000000001
 30
0.0
 40
0.3
  0
LINE
  5
45B
  8
0
  6
CONTINUOUS
 62
     7
 10
-139.84558000000001
 20
80.843140000000005
 30
0.0
 11
-139.84558000000001
 21
31.343138
 31
0.0
  0
TEXT
  5
45C
  8
0
  6
CONTINUOUS
 62
     7
 10
-122.58844999999999
 20
33.643135999999998
 30
0.0
 40
3.2000000000000002
  1
40
 41
1.102041
  0
LINE
  5
45D
  8
0
  6
CONTINUOUS
 62
     7
 10
-139.84558000000001
 20
32.843136000000001
 30
0.0
 11
-119.84558
 21
32.843136000000001
 31
0.0
  0
CIRCLE
  5
45E
  8
0
  6
CONTINUOUS
 62
     7
 10
-139.84558000000001
 20
32.843136000000001
 30
0.0
 40
0.3
  0
LINE
  5
45F
  8
0
  6
CONTINUOUS
 62
     7
 10
-99.845589000000004
 20
32.843136000000001
 30
0.0
 11
-119.84558
 21
32.843136000000001
 31
0.0
  0
CIRCLE
  5
460
  8
0
  6
CONTINUOUS
 62
     7
 10
-99.845589000000004
 20
32.843136000000001
 30
0.0
 40
0.3
  0
LINE
  5
461
  8
0
  6
CONTINUOUS
 62
     7
 10
-99.845589000000004
 20
55.167381000000013
 30
0.0
 11
-99.845589000000004
 21
31.343138
 31
0.0
  0
TEXT
  5
462
  8
0
  6
CONTINUOUS
 62
     7
 10
-85.088445999999976
 20
33.643135999999998
 30
0.0
 40
3.2000000000000002
  1
35
 41
1.0285716
  0
LINE
  5
463
  8
0
  6
CONTINUOUS
 62
     7
 10
-99.845589000000004
 20
32.843136000000001
 30
0.0
 11
-82.345589000000004
 21
32.843136000000001
 31
0.0
  0
CIRCLE
  5
464
  8
0
  6
CONTINUOUS
 62
     7
 10
-99.845589000000004
 20
32.843136000000001
 30
0.0
 40
0.3
  0
LINE
  5
465
  8
0
  6
CONTINUOUS
 62
     7
 10
-64.845589000000004
 20
32.843136000000001
 30
0.0
 11
-82.345589000000004
 21
32.843136000000001
 31
0.0
  0
CIRCLE
  5
466
  8
0
  6
CONTINUOUS
 62
     7
 10
-64.845589000000004
 20
32.843136000000001
 30
0.0
 40
0.3
  0
LINE
  5
467
  8
0
  6
CONTINUOUS
 62
     7
 10
-64.845589000000004
 20
82.667381000000006
 30
0.0
 11
-64.845589000000004
 21
31.343138
 31
0.0
  0
TEXT
  5
468
  8
0
  6
CONTINUOUS
 62
     7
 10
-150.08843999999991
 20
43.643135999999998
 30
0.0
 40
3.2000000000000002
  1
35
 41
1.0285716
  0
LINE
  5
469
  8
0
  6
CONTINUOUS
 62
     7
 10
-164.84558000000001
 20
42.843135999999987
 30
0.0
 11
-147.34558000000001
 21
42.843135999999987
 31
0.0
  0
CIRCLE
  5
46A
  8
0
  6
CONTINUOUS
 62
     7
 10
-164.84558000000001
 20
42.843135999999987
 30
0.0
 40
0.3
  0
LINE
  5
46B
  8
0
  6
CONTINUOUS
 62
     7
 10
-129.84558000000001
 20
42.843135999999987
 30
0.0
 11
-147.34558000000001
 21
42.843135999999987
 31
0.0
  0
CIRCLE
  5
46C
  8
0
  6
CONTINUOUS
 62
     7
 10
-129.84558000000001
 20
42.843135999999987
 30
0.0
 40
0.3
  0
LINE
  5
46D
  8
0
  6
CONTINUOUS
 62
     7
 10
-129.84558000000001
 20
89.843140000000005
 30
0.0
 11
-129.84558000000001
 21
41.343136000000001
 31
0.0
  0
TEXT
  5
46E
  8
0
  6
CONTINUOUS
 62
     7
 10
-120.0884499999999
 20
43.643135999999998
 30
0.0
 40
3.2000000000000002
  1
25
 41
1.0285716
  0
LINE
  5
46F
  8
0
  6
CONTINUOUS
 62
     7
 10
-129.84558000000001
 20
42.843135999999987
 30
0.0
 11
-117.3455799999999
 21
42.843135999999987
 31
0.0
  0
CIRCLE
  5
470
  8
0
  6
CONTINUOUS
 62
     7
 10
-129.84558000000001
 20
42.843135999999987
 30
0.0
 40
0.3
  0
LINE
  5
471
  8
0
  6
CONTINUOUS
 62
     7
 10
-104.8455899999999
 20
42.843135999999987
 30
0.0
 11
-117.3455799999999
 21
42.843135999999987
 31
0.0
  0
CIRCLE
  5
472
  8
0
  6
CONTINUOUS
 62
     7
 10
-104.8455899999999
 20
42.843135999999987
 30
0.0
 40
0.3
  0
TEXT
  5
473
  8
0
  6
CONTINUOUS
 62
     7
 10
-103.4884499999999
 20
43.643135999999998
 30
0.0
 40
3.2000000000000002
  1
5
 41
1.0714291
  0
LINE
  5
474
  8
0
  6
CONTINUOUS
 62
     7
 10
-104.8455899999999
 20
42.843135999999987
 30
0.0
 11
-102.34559
 21
42.843135999999987
 31
0.0
  0
CIRCLE
  5
475
  8
0
  6
CONTINUOUS
 62
     7
 10
-104.8455899999999
 20
42.843135999999987
 30
0.0
 40
0.3
  0
LINE
  5
476
  8
0
  6
CONTINUOUS
 62
     7
 10
-99.845589000000004
 20
42.843135999999987
 30
0.0
 11
-102.34559
 21
42.843135999999987
 31
0.0
  0
CIRCLE
  5
477
  8
0
  6
CONTINUOUS
 62
     7
 10
-99.845589000000004
 20
42.843135999999987
 30
0.0
 40
0.3
  0
TEXT
  5
478
  8
0
  6
CONTINUOUS
 62
     7
 10
-97.488445999999996
 20
43.643135999999998
 30
0.0
 40
3.2000000000000002
  1
7
 41
1.0714291
  0
LINE
  5
479
  8
0
  6
CONTINUOUS
 62
     7
 10
-99.845589000000004
 20
42.843135999999987
 30
0.0
 11
-96.345589000000004
 21
42.843135999999987
 31
0.0
  0
CIRCLE
  5
47A
  8
0
  6
CONTINUOUS
 62
     7
 10
-99.845589000000004
 20
42.843135999999987
 30
0.0
 40
0.3
  0
LINE
  5
47B
  8
0
  6
CONTINUOUS
 62
     7
 10
-92.845589000000004
 20
42.843135999999987
 30
0.0
 11
-96.345589000000004
 21
42.843135999999987
 31
0.0
  0
CIRCLE
  5
47C
  8
0
  6
CONTINUOUS
 62
     7
 10
-92.845589000000004
 20
42.843135999999987
 30
0.0
 40
0.3
  0
TEXT
  5
47D
  8
0
  6
CONTINUOUS
 62
     7
 10
-77.088445999999976
 20
43.643135999999998
 30
0.0
 40
3.2000000000000002
  1
37
 41
1.0285716
  0
LINE
  5
47E
  8
0
  6
CONTINUOUS
 62
     7
 10
-92.845589000000004
 20
42.843135999999987
 30
0.0
 11
-74.345589000000004
 21
42.843135999999987
 31
0.0
  0
CIRCLE
  5
47F
  8
0
  6
CONTINUOUS
 62
     7
 10
-92.845589000000004
 20
42.843135999999987
 30
0.0
 40
0.3
  0
LINE
  5
480
  8
0
  6
CONTINUOUS
 62
     7
 10
-55.845589000000011
 20
42.843135999999987
 30
0.0
 11
-74.345589000000004
 21
42.843135999999987
 31
0.0
  0
CIRCLE
  5
481
  8
0
  6
CONTINUOUS
 62
     7
 10
-55.845589000000011
 20
42.843135999999987
 30
0.0
 40
0.3
  0
LINE
  5
482
  8
0
  6
CONTINUOUS
 62
     7
 10
-55.845589000000011
 20
89.843140000000005
 30
0.0
 11
-55.845589000000011
 21
41.343136000000001
 31
0.0
  0
TEXT
  5
483
  8
0
  6
CONTINUOUS
 62
     7
 10
34.354410999999999
 20
87.100281999999979
 30
0.0
 40
3.2000000000000002
  1
12
 50
90.000003000000007
 41
1.2857145000000001
  0
LINE
  5
484
  8
0
  6
CONTINUOUS
 62
     7
 10
35.154410999999982
 20
83.843140000000005
 30
0.0
 11
35.154410999999982
 21
89.843140000000005
 31
0.0
  0
CIRCLE
  5
485
  8
0
  6
CONTINUOUS
 62
     7
 10
35.154410999999982
 20
83.843140000000005
 30
0.0
 40
0.3
  0
LINE
  5
486
  8
0
  6
CONTINUOUS
 62
     7
 10
35.154410999999982
 20
95.843140000000005
 30
0.0
 11
35.154410999999982
 21
89.843140000000005
 31
0.0
  0
CIRCLE
  5
487
  8
0
  6
CONTINUOUS
 62
     7
 10
35.154410999999982
 20
95.843140000000005
 30
0.0
 40
0.3
  0
LINE
  5
488
  8
0
  6
CONTINUOUS
 62
     7
 10
25.154411
 20
83.843140000000005
 30
0.0
 11
36.654410999999982
 21
83.843140000000005
 31
0.0
  0
LINE
  5
489
  8
0
  6
CONTINUOUS
 62
     7
 10
25.154411
 20
95.843140000000005
 30
0.0
 11
36.654410999999982
 21
95.843140000000005
 31
0.0
  0
TEXT
  5
48A
  8
0
  6
CONTINUOUS
 62
     7
 10
-26.645589000000001
 20
87.707144999999983
 30
0.0
 40
3.2000000000000002
  1
%%C74
 50
90.000003000000007
 41
1.0178572999999991
  0
LINE
  5
48B
  8
0
  6
CONTINUOUS
 62
     7
 10
-25.845589
 20
52.843136000000001
 30
0.0
 11
-25.845589
 21
89.843137999999982
 31
0.0
  0
CIRCLE
  5
48C
  8
0
  6
CONTINUOUS
 62
     7
 10
-25.845589
 20
52.843136000000001
 30
0.0
 40
0.3
  0
LINE
  5
48D
  8
0
  6
CONTINUOUS
 62
     7
 10
-25.845589
 20
126.84313999999991
 30
0.0
 11
-25.845589
 21
89.843137999999982
 31
0.0
  0
CIRCLE
  5
48E
  8
0
  6
CONTINUOUS
 62
     7
 10
-25.845589
 20
126.84313999999991
 30
0.0
 40
0.3
  0
LINE
  5
48F
  8
0
  6
CONTINUOUS
 62
     7
 10
-92.845589000000004
 20
52.843136000000001
 30
0.0
 11
-24.345589
 21
52.843136000000001
 31
0.0
  0
LINE
  5
490
  8
0
  6
CONTINUOUS
 62
     7
 10
-92.845589000000004
 20
126.84313999999991
 30
0.0
 11
-24.345589
 21
126.84313999999991
 31
0.0
  0
TEXT
  5
491
  8
0
  6
CONTINUOUS
 62
     7
 10
-36.645589000000001
 20
87.100281999999979
 30
0.0
 40
3.2000000000000002
  1
55
 50
90.000003000000007
 41
1.0285716
  0
LINE
  5
492
  8
0
  6
CONTINUOUS
 62
     7
 10
-35.84558899999999
 20
62.343136000000001
 30
0.0
 11
-35.84558899999999
 21
89.843137999999982
 31
0.0
  0
CIRCLE
  5
493
  8
0
  6
CONTINUOUS
 62
     7
 10
-35.84558899999999
 20
62.343136000000001
 30
0.0
 40
0.3
  0
LINE
  5
494
  8
0
  6
CONTINUOUS
 62
     7
 10
-35.84558899999999
 20
117.34313999999991
 30
0.0
 11
-35.84558899999999
 21
89.843137999999982
 31
0.0
  0
CIRCLE
  5
495
  8
0
  6
CONTINUOUS
 62
     7
 10
-35.84558899999999
 20
117.34313999999991
 30
0.0
 40
0.3
  0
LINE
  5
496
  8
0
  6
CONTINUOUS
 62
     7
 10
-92.229767000000024
 20
62.343136000000001
 30
0.0
 11
-34.34558899999999
 21
62.343136000000001
 31
0.0
  0
LINE
  5
497
  8
0
  6
CONTINUOUS
 62
     7
 10
-92.229767000000024
 20
117.34313999999991
 30
0.0
 11
-34.34558899999999
 21
117.34313999999991
 31
0.0
  0
TEXT
  5
498
  8
0
  6
CONTINUOUS
 62
     7
 10
-46.645589000000001
 20
74.950282000000001
 30
0.0
 40
3.2000000000000002
  1
〃
 50
90.000003000000007
 41
0.90036055
  0
LINE
  5
499
  8
0
  6
CONTINUOUS
 62
     7
 10
-45.845588999999997
 20
62.343136000000001
 30
0.0
 11
-45.845588999999997
 21
76.093137999999982
 31
0.0
  0
CIRCLE
  5
49A
  8
0
  6
CONTINUOUS
 62
     7
 10
-45.845588999999997
 20
62.343136000000001
 30
0.0
 40
0.3
  0
LINE
  5
49B
  8
0
  6
CONTINUOUS
 62
     7
 10
-45.845588999999997
 20
89.843140000000005
 30
0.0
 11
-45.845588999999997
 21
76.093137999999982
 31
0.0
  0
CIRCLE
  5
49C
  8
0
  6
CONTINUOUS
 62
     7
 10
-45.845588999999997
 20
89.843140000000005
 30
0.0
 40
0.3
  0
TEXT
  5
49D
  8
0
  6
CONTINUOUS
 62
     7
 10
-46.645589000000001
 20
102.45028000000001
 30
0.0
 40
3.2000000000000002
  1
〃
 50
90.000003000000007
 41
0.90036055
  0
LINE
  5
49E
  8
0
  6
CONTINUOUS
 62
     7
 10
-45.845588999999997
 20
117.34313999999991
 30
0.0
 11
-45.845588999999997
 21
103.59314000000001
 31
0.0
  0
CIRCLE
  5
49F
  8
0
  6
CONTINUOUS
 62
     7
 10
-45.845588999999997
 20
117.34313999999991
 30
0.0
 40
0.3
  0
LINE
  5
4A0
  8
0
  6
CONTINUOUS
 62
     7
 10
-45.845588999999997
 20
89.843140000000005
 30
0.0
 11
-45.845588999999997
 21
103.59314000000001
 31
0.0
  0
CIRCLE
  5
4A1
  8
0
  6
CONTINUOUS
 62
     7
 10
-45.845588999999997
 20
89.843140000000005
 30
0.0
 40
0.3
  0
TEXT
  5
4A2
  8
0
  6
CONTINUOUS
 62
     7
 10
-186.1644899999998
 20
87.100281999999979
 30
0.0
 40
3.2000000000000002
  1
20
 50
90.000003000000007
 41
1.102041
  0
LINE
  5
4A3
  8
0
  6
CONTINUOUS
 62
     7
 10
-185.3644899999999
 20
79.843140000000005
 30
0.0
 11
-185.3644899999999
 21
89.843140000000005
 31
0.0
  0
CIRCLE
  5
4A4
  8
0
  6
CONTINUOUS
 62
     7
 10
-185.3644899999999
 20
79.843140000000005
 30
0.0
 40
0.3
  0
LINE
  5
4A5
  8
0
  6
CONTINUOUS
 62
     7
 10
-185.3644899999999
 20
99.843140000000005
 30
0.0
 11
-185.3644899999999
 21
89.843140000000005
 31
0.0
  0
CIRCLE
  5
4A6
  8
0
  6
CONTINUOUS
 62
     7
 10
-185.3644899999999
 20
99.843140000000005
 30
0.0
 40
0.3
  0
LINE
  5
4A7
  8
0
  6
CONTINUOUS
 62
     7
 10
-152.34558000000001
 20
79.843140000000005
 30
0.0
 11
-186.8644899999999
 21
79.843140000000005
 31
0.0
  0
LINE
  5
4A8
  8
0
  6
CONTINUOUS
 62
     7
 10
-152.34558000000001
 20
99.843140000000005
 30
0.0
 11
-186.8644899999999
 21
99.843140000000005
 31
0.0
  0
TEXT
  5
4A9
  8
0
  6
CONTINUOUS
 62
     7
 10
-175.64557999999991
 20
87.100281999999979
 30
0.0
 40
3.2000000000000002
  1
18
 50
90.000003000000007
 41
1.2857145000000001
  0
LINE
  5
4AA
  8
0
  6
CONTINUOUS
 62
     7
 10
-174.84558000000001
 20
98.843140000000005
 30
0.0
 11
-174.84558000000001
 21
89.843140000000005
 31
0.0
  0
CIRCLE
  5
4AB
  8
0
  6
CONTINUOUS
 62
     7
 10
-174.84558000000001
 20
98.843140000000005
 30
0.0
 40
0.3
  0
LINE
  5
4AC
  8
0
  6
CONTINUOUS
 62
     7
 10
-174.84558000000001
 20
80.843140000000005
 30
0.0
 11
-174.84558000000001
 21
89.843140000000005
 31
0.0
  0
CIRCLE
  5
4AD
  8
0
  6
CONTINUOUS
 62
     7
 10
-174.84558000000001
 20
80.843140000000005
 30
0.0
 40
0.3
  0
LINE
  5
4AE
  8
0
  6
CONTINUOUS
 62
     7
 10
-164.84558000000001
 20
98.843140000000005
 30
0.0
 11
-176.34558000000001
 21
98.843140000000005
 31
0.0
  0
LINE
  5
4AF
  8
0
  6
CONTINUOUS
 62
     7
 10
-164.84558000000001
 20
80.843140000000005
 30
0.0
 11
-176.34558000000001
 21
80.843140000000005
 31
0.0
  0
TEXT
  5
4B0
  8
0
  6
CONTINUOUS
 62
     7
 10
-153.0127599999999
 20
131.8685899999999
 30
0.0
 40
3.2000000000000002
  1
90%%D
 50
45.00000099999999
 41
1.0857143999999981
  0
LINE
  5
4B1
  8
0
  6
CONTINUOUS
 62
     7
 10
-104.8455899999999
 20
153.61409
 30
0.0
 11
-104.8455899999999
 21
151.31893999999991
 31
0.0
  0
LINE
  5
4B2
  8
0
  6
CONTINUOUS
 62
     7
 10
-169.97303999999991
 20
89.843140000000005
 30
0.0
 11
-166.32140000000001
 21
89.843140000000005
 31
0.0
  0
ARC
  5
4B3
  8
0
  6
CONTINUOUS
 62
     7
 10
-104.8455899999999
 20
89.843140000000005
 30
0.0
 40
62.97580700000001
 50
90.0
 51
135.00001
  0
CIRCLE
  5
4B4
  8
0
  6
CONTINUOUS
 62
     7
 10
-104.8455899999999
 20
152.81894
 30
0.0
 40
0.3
  0
ARC
  5
4B5
  8
0
  6
CONTINUOUS
 62
     7
 10
-104.8455899999999
 20
89.843140000000005
 30
0.0
 40
62.97580700000001
 50
135.00001
 51
180.00001
  0
CIRCLE
  5
4B6
  8
0
  6
CONTINUOUS
 62
     7
 10
-167.82140000000001
 20
89.843131999999983
 30
0.0
 40
0.3
  0
LINE
  5
4B7
  8
0
  6
CONTINUOUS
 62
     7
 10
-102.9455899999999
 20
111.97378
 30
0.0
 11
-81.081703000000005
 21
149.84313999999981
 31
0.0
  0
LINE
  5
4B8
  8
0
  6
CONTINUOUS
 62
     7
 10
-81.081703000000005
 20
149.84313999999981
 30
0.0
 11
-33.356293000000001
 21
149.84313999999981
 31
0.0
  0
CIRCLE
  5
4B9
  8
0
  6
CONTINUOUS
 62
     7
 10
-102.9455899999999
 20
111.97378
 30
0.0
 40
0.3
  0
TEXT
  5
4BA
  8
0
  6
CONTINUOUS
 62
     7
 10
-78.613437000000005
 20
150.64313999999979
 30
0.0
 40
3.2000000000000002
  1
３－%%C６．５ｘ%%C１２．４サラ
 41
0.8634387799999999
  0
LINE
  5
4BB
  8
0
  6
CONTINUOUS
 62
     7
 10
-152.34558000000001
 20
89.843140000000005
 30
0.0
 11
-167.34558000000001
 21
115.82389999999999
 31
0.0
  0
LINE
  5
4BC
  8
0
  6
CONTINUOUS
 62
     7
 10
-167.34558000000001
 20
115.82389999999999
 30
0.0
 11
-182.10220000000001
 21
115.82389999999999
 31
0.0
  0
CIRCLE
  5
4BD
  8
0
  6
CONTINUOUS
 62
     7
 10
-152.34558000000001
 20
89.843140000000005
 30
0.0
 40
0.3
  0
TEXT
  5
4BE
  8
0
  6
CONTINUOUS
 62
     7
 10
-181.18791999999991
 20
116.62390000000001
 30
0.0
 40
3.2000000000000002
  1
施錠位置
 41
0.85124966
  0
LINE
  5
4BF
  8
0
  6
CONTINUOUS
 62
     7
 10
-104.8455899999999
 20
137.34311999999991
 30
0.0
 11
-119.8455899999999
 21
163.32390000000001
 31
0.0
  0
LINE
  5
4C0
  8
0
  6
CONTINUOUS
 62
     7
 10
-119.8455899999999
 20
163.32390000000001
 30
0.0
 11
-134.60220000000001
 21
163.32390000000001
 31
0.0
  0
CIRCLE
  5
4C1
  8
0
  6
CONTINUOUS
 62
     7
 10
-104.8455899999999
 20
137.34311999999991
 30
0.0
 40
0.3
  0
TEXT
  5
4C2
  8
0
  6
CONTINUOUS
 62
     7
 10
-133.68791999999999
 20
164.12389999999979
 30
0.0
 40
3.2000000000000002
  1
解錠位置
 41
0.85124966
  0
ENDSEC
  0
EOF
