  0
SECTION
  2
HEADER
  9
$ACADVER
  1
AC1009
  9
$INSBASE
 10
0.0
 20
0.0
 30
0.0
  9
$EXTMIN
 10
-200.70037696777521
 20
-85.665065920939924
 30
-0.0000000349181948
  9
$EXTMAX
 10
57.797341675272037
 20
156.7512026596726
 30
0.0000000814935747
  9
$LIMMIN
 10
0.0
 20
0.0
  9
$LIMMAX
 10
12.0
 20
9.0
  9
$ORTHOMODE
 70
     0
  9
$REGENMODE
 70
     1
  9
$FILLMODE
 70
     1
  9
$QTEXTMODE
 70
     0
  9
$MIRRTEXT
 70
     1
  9
$DRAGMODE
 70
     2
  9
$LTSCALE
 40
1.0
  9
$OSMODE
 70
    37
  9
$ATTMODE
 70
     1
  9
$TEXTSIZE
 40
0.2
  9
$TRACEWID
 40
0.05
  9
$TEXTSTYLE
  7
STANDARD
  9
$CLAYER
  8
0
  9
$CELTYPE
  6
CONTINUOUS
  9
$CECOLOR
 62
   256
  9
$DIMSCALE
 40
1.0
  9
$DIMASZ
 40
0.18
  9
$DIMEXO
 40
0.0625
  9
$DIMDLI
 40
0.38
  9
$DIMRND
 40
0.0
  9
$DIMDLE
 40
0.0
  9
$DIMEXE
 40
0.18
  9
$DIMTP
 40
0.0
  9
$DIMTM
 40
0.0
  9
$DIMTXT
 40
0.18
  9
$DIMCEN
 40
0.09
  9
$DIMTSZ
 40
0.0
  9
$DIMTOL
 70
     0
  9
$DIMLIM
 70
     0
  9
$DIMTIH
 70
     1
  9
$DIMTOH
 70
     1
  9
$DIMSE1
 70
     0
  9
$DIMSE2
 70
     0
  9
$DIMTAD
 70
     0
  9
$DIMZIN
 70
     0
  9
$DIMBLK
  1

  9
$DIMASO
 70
     1
  9
$DIMSHO
 70
     1
  9
$DIMPOST
  1

  9
$DIMAPOST
  1

  9
$DIMALT
 70
     0
  9
$DIMALTD
 70
     2
  9
$DIMALTF
 40
25.399999999999999
  9
$DIMLFAC
 40
1.0
  9
$DIMTOFL
 70
     0
  9
$DIMTVP
 40
0.0
  9
$DIMTIX
 70
     0
  9
$DIMSOXD
 70
     0
  9
$DIMSAH
 70
     0
  9
$DIMBLK1
  1

  9
$DIMBLK2
  1

  9
$DIMSTYLE
  2
STANDARD
  9
$DIMCLRD
 70
     0
  9
$DIMCLRE
 70
     0
  9
$DIMCLRT
 70
     0
  9
$DIMTFAC
 40
1.0
  9
$DIMGAP
 40
0.09
  9
$LUNITS
 70
     2
  9
$LUPREC
 70
     4
  9
$SKETCHINC
 40
0.1
  9
$FILLETRAD
 40
0.0
  9
$AUNITS
 70
     0
  9
$AUPREC
 70
     0
  9
$MENU
  1
.
  9
$ELEVATION
 40
0.0
  9
$PELEVATION
 40
0.0
  9
$THICKNESS
 40
0.0
  9
$LIMCHECK
 70
     0
  9
$BLIPMODE
 70
     0
  9
$CHAMFERA
 40
0.0
  9
$CHAMFERB
 40
0.0
  9
$SKPOLY
 70
     0
  9
$TDCREATE
 40
2452865.4889704399
  9
$TDUPDATE
 40
2452865.5075003589
  9
$TDINDWG
 40
0.0032071065
  9
$TDUSRTIMER
 40
0.0032069213
  9
$USRTIMER
 70
     1
  9
$ANGBASE
 50
0.0
  9
$ANGDIR
 70
     0
  9
$PDMODE
 70
     0
  9
$PDSIZE
 40
0.0
  9
$PLINEWID
 40
0.0
  9
$COORDS
 70
     1
  9
$SPLFRAME
 70
     0
  9
$SPLINETYPE
 70
     6
  9
$SPLINESEGS
 70
     8
  9
$ATTDIA
 70
     1
  9
$ATTREQ
 70
     1
  9
$HANDLING
 70
     1
  9
$HANDSEED
  5
5A6
  9
$SURFTAB1
 70
     6
  9
$SURFTAB2
 70
     6
  9
$SURFTYPE
 70
     6
  9
$SURFU
 70
     6
  9
$SURFV
 70
     6
  9
$UCSNAME
  2

  9
$UCSORG
 10
0.0
 20
0.0
 30
0.0
  9
$UCSXDIR
 10
1.0
 20
0.0
 30
0.0
  9
$UCSYDIR
 10
0.0
 20
1.0
 30
0.0
  9
$PUCSNAME
  2

  9
$PUCSORG
 10
0.0
 20
0.0
 30
0.0
  9
$PUCSXDIR
 10
1.0
 20
0.0
 30
0.0
  9
$PUCSYDIR
 10
0.0
 20
1.0
 30
0.0
  9
$USERI1
 70
     0
  9
$USERI2
 70
     0
  9
$USERI3
 70
     0
  9
$USERI4
 70
     0
  9
$USERI5
 70
     0
  9
$USERR1
 40
0.0
  9
$USERR2
 40
0.0
  9
$USERR3
 40
0.0
  9
$USERR4
 40
0.0
  9
$USERR5
 40
0.0
  9
$WORLDVIEW
 70
     1
  9
$SHADEDGE
 70
     3
  9
$SHADEDIF
 70
    70
  9
$TILEMODE
 70
     1
  9
$MAXACTVP
 70
    64
  9
$PLIMCHECK
 70
     0
  9
$PEXTMIN
 10
1.0000000000000000E+020
 20
1.0000000000000000E+020
 30
1.0000000000000000E+020
  9
$PEXTMAX
 10
-1.0000000000000000E+020
 20
-1.0000000000000000E+020
 30
-1.0000000000000000E+020
  9
$PLIMMIN
 10
0.0
 20
0.0
  9
$PLIMMAX
 10
12.0
 20
9.0
  9
$UNITMODE
 70
     0
  9
$VISRETAIN
 70
     1
  9
$PLINEGEN
 70
     0
  9
$PSLTSCALE
 70
     1
  0
ENDSEC
  0
SECTION
  2
TABLES
  0
TABLE
  2
VPORT
 70
     3
  0
VPORT
  2
*ACTIVE
 70
     0
 10
0.0
 20
0.0
 11
1.0
 21
1.0
 12
-71.451517646251602
 22
35.543068369366388
 13
0.0
 23
0.0
 14
1.0
 24
1.0
 15
0.0
 25
0.0
 16
0.0
 26
0.0
 36
1.0
 17
0.0
 27
0.0
 37
0.0
 40
244.17503231880329
 41
1.3389830508474569
 42
50.0
 43
0.0
 44
0.0
 50
0.0
 51
0.0
 71
     0
 72
   100
 73
     1
 74
     1
 75
     0
 76
     0
 77
     0
 78
     0
  0
ENDTAB
  0
TABLE
  2
LTYPE
 70
    19
  0
LTYPE
  2
CONTINUOUS
 70
     0
  3
Solid line
 72
    65
 73
     0
 40
0.0
  0
LTYPE
  2
DASHED
 70
     0
  3
__ __ __ __ __ __ __ __ __ __ __ __ __ __ __
 72
    65
 73
     2
 40
3.5
 49
2.0
 49
-1.5
  0
LTYPE
  2
CENTER
 70
     0
  3
____ _ ____ _ ____ _ ____ _ ____ _ ____ _ ____
 72
    65
 73
     4
 40
17.5
 49
13.0
 49
-1.5
 49
1.5
 49
-1.5
  0
LTYPE
  2
PHANTOM
 70
     0
  3
_____ _ _ _____ _ _ _____ _ _ _____ _ _ ____  
 72
    65
 73
     6
 40
15.5
 49
8.0
 49
-1.5
 49
1.5
 49
-1.5
 49
1.5
 49
-1.5
  0
LTYPE
  2
DOT
 70
     0
  3
. . . . . . . . . . . . . . . . . . . . . . . .
 72
    65
 73
     2
 40
0.25
 49
0.0
 49
-0.25
  0
LTYPE
  2
AM_ISO02W050
 70
     0
  3
__ __ __ __ __ __ __ __ __ __ __ __ __ __ __
 72
    65
 73
     2
 40
7.5
 49
6.0
 49
-1.5
  0
LTYPE
  2
AM_ISO08W050
 70
     0
  3
____ . ____ . ____ . ____ . ____ . ____ . ____
 72
    65
 73
     4
 40
18.0
 49
12.0
 49
-1.5
 49
3.0
 49
-1.5
  0
LTYPE
  2
AM_ISO09W050
 70
     0
  3
_____ . . _____ . . _____ . . ____ .. ____
 72
    65
 73
     6
 40
22.5
 49
12.0
 49
-1.5
 49
3.0
 49
-1.5
 49
3.0
 49
-1.5
  0
LTYPE
  2
AMCONSTR
 70
     0
  3
_______________________
 72
    65
 73
     2
 40
9999.0
 49
9999.0
 49
0.0
  0
LTYPE
  2
AM_ISO08W050X2
 70
     0
  3
__ . __ . __ . __ . __ . __
 72
    65
 73
     4
 40
9.0
 49
6.0
 49
-0.75
 49
1.5
 49
-0.75
  0
LTYPE
  2
AM_ISO02W050X2
 70
     0
  3
 _ _ _ _ _ _ _ _ _ _ _ _
 72
    65
 73
     2
 40
3.75
 49
3.0
 49
-0.75
  0
LTYPE
  2
AMZIGZAG
 70
     0
  3
/\/-/\/-/\/-/\/-/\/-/\/
 72
    65
 73
     2
 40
11.000099999999991
 49
0.0001
 49
-11.0
  0
LTYPE
  2
HIDDEN
 70
     0
  3
Hidden __ __ __ __ __ __ __ __ __ __ __ __ __ _
 72
    65
 73
     2
 40
0.375
 49
0.25
 49
-0.125
  0
LTYPE
  2
PHANTOM2
 70
     0
  3
Phantom (.5x) ___ _ _ ___ _ _ ___ _ _ ___ _ _
 72
    65
 73
     6
 40
1.25
 49
0.625
 49
-0.125
 49
0.125
 49
-0.125
 49
0.125
 49
-0.125
  0
LTYPE
  2
CENTER2
 70
     0
  3
Center (.5x) ___ _ ___ _ ___ _ ___ _ ___ _ ___
 72
    65
 73
     4
 40
1.125
 49
0.75
 49
-0.125
 49
0.125
 49
-0.125
  0
LTYPE
  2
HIDDEN2
 70
     0
  3
Hidden (.5x) _ _ _ _ _ _ _ _ _ _ _ _ _ _ _ _ _
 72
    65
 73
     2
 40
0.1875
 49
0.125
 49
-0.0625
  0
LTYPE
  2
AMZIGZAG2
 70
     0
  3
/\/-/\/-/\/-/\/-/\/-/\/
 72
    65
 73
     2
 40
0.4401
 49
0.0001
 49
-0.4400000000000002
  0
LTYPE
  2
ACANSTGB
 70
     0
  3
__ . . __ . .
 72
    65
 73
     6
 40
0.35433070866
 49
0.15748031496
 49
-0.03937007874
 49
0.03937007874
 49
-0.03937007874
 49
0.03937007874
 49
-0.03937007874
  0
LTYPE
  2
ACANSTGL
 70
     0
  3
_ _ _ _ _
 72
    65
 73
     2
 40
0.11811023622
 49
0.07874015748
 49
-0.03937007874
  0
ENDTAB
  0
TABLE
  2
LAYER
 70
     3
  0
LAYER
  2
0
 70
     0
 62
     7
  6
CONTINUOUS
  0
LAYER
  2
1
 70
     0
 62
     7
  6
CONTINUOUS
  0
LAYER
  2
2
 70
     0
 62
     7
  6
CONTINUOUS
  0
ENDTAB
  0
TABLE
  2
STYLE
 70
     4
  0
STYLE
  2
STANDARD
 70
     0
 40
0.0
 41
1.0
 50
0.0
 71
     0
 42
0.2
  3
txt
  4
BIGFONT
  0
STYLE
  2

 70
     1
 40
0.0
 41
1.0
 50
0.0
 71
     0
 42
0.2
  3
ltypeshp.shx
  4

  0
STYLE
  2
ACANSTS
 70
     0
 40
1.0
 41
1.0
 50
0.0
 71
     0
 42
0.2
  3
romans.shx
  4
extfont.shx
  0
STYLE
  2
ACANSGDT
 70
     0
 40
0.0
 41
1.0
 50
0.0
 71
     0
 42
0.2
  3
amgdtans.shx
  4

  0
ENDTAB
  0
TABLE
  2
VIEW
 70
     0
  0
ENDTAB
  0
TABLE
  2
UCS
 70
     0
  0
ENDTAB
  0
TABLE
  2
APPID
 70
     4
  0
APPID
  2
ACAD
 70
     0
  0
APPID
  2
MCAD_NO_VIS
 70
     0
  0
APPID
  2
ACAD_TEMP_GRAPHIC
 70
     0
  0
APPID
  2
ACATTRIBSERVICES
 70
     0
  0
ENDTAB
  0
TABLE
  2
DIMSTYLE
 70
     7
  0
DIMSTYLE
  2
STANDARD
 70
     0
  3

  4

  5

  6

  7

 40
1.0
 41
0.18
 42
0.0625
 43
0.38
 44
0.18
 45
0.0
 46
0.0
 47
0.0
 48
0.0
140
0.18
141
0.09
142
0.0
143
25.399999999999999
144
1.0
145
0.0
146
1.0
147
0.09
 71
     0
 72
     0
 73
     1
 74
     1
 75
     0
 76
     0
 77
     0
 78
     0
170
     0
171
     2
172
     0
173
     0
174
     0
175
     0
176
     0
177
     0
178
     0
  0
DIMSTYLE
  2
AM_ANSI
 70
     0
  3

  4
mm
  5

  6

  7

 40
1.0
 41
0.1
 42
0.05
 43
0.5
 44
0.1
 45
0.0
 46
0.0
 47
0.1
 48
0.1
140
0.12
141
0.0
142
0.0
143
25.399999999999999
144
1.0
145
0.0
146
0.71
147
0.06
 71
     0
 72
     0
 73
     1
 74
     1
 75
     0
 76
     0
 77
     0
 78
     7
170
     0
171
     2
172
     0
173
     0
174
     0
175
     0
176
   256
177
   256
178
     2
  0
DIMSTYLE
  2
AM_ANSI$3
 70
     0
  3

  4
mm
  5

  6

  7

 40
1.0
 41
0.1
 42
0.05
 43
0.5
 44
0.1
 45
0.0
 46
0.0
 47
0.1
 48
0.1
140
0.12
141
0.0
142
0.0
143
25.399999999999999
144
1.0
145
0.0
146
0.71
147
0.06
 71
     0
 72
     0
 73
     1
 74
     1
 75
     0
 76
     0
 77
     0
 78
     7
170
     0
171
     2
172
     0
173
     0
174
     0
175
     0
176
   256
177
   256
178
     2
  0
DIMSTYLE
  2
AM_ANSI$4
 70
     0
  3

  4
mm
  5

  6

  7

 40
1.0
 41
0.1
 42
0.05
 43
0.5
 44
0.1
 45
0.0
 46
0.0
 47
0.1
 48
0.1
140
0.12
141
0.0
142
0.0
143
25.399999999999999
144
1.0
145
0.0
146
0.71
147
0.06
 71
     0
 72
     0
 73
     1
 74
     1
 75
     0
 76
     0
 77
     0
 78
     7
170
     0
171
     2
172
     0
173
     0
174
     0
175
     0
176
   256
177
   256
178
     2
  0
DIMSTYLE
  2
AM_ANSI$7
 70
     0
  3

  4
mm
  5

  6

  7

 40
1.0
 41
0.1
 42
0.05
 43
0.5
 44
0.1
 45
0.0
 46
0.0
 47
0.1
 48
0.1
140
0.24
141
0.0
142
0.0
143
25.399999999999999
144
1.0
145
0.0
146
0.71
147
0.06
 71
     0
 72
     0
 73
     1
 74
     1
 75
     0
 76
     0
 77
     0
 78
     7
170
     0
171
     2
172
     0
173
     0
174
     0
175
     0
176
   256
177
   256
178
     2
  0
DIMSTYLE
  2
AM_ANSI$SF
 70
     0
  3

  4
mm
  5

  6

  7

 40
1.0
 41
0.1
 42
0.05
 43
0.5
 44
0.1
 45
0.0
 46
0.0
 47
0.1
 48
0.1
140
0.12
141
0.0
142
0.0
143
25.399999999999999
144
1.0
145
0.0
146
0.71
147
0.06
 71
     0
 72
     0
 73
     1
 74
     1
 75
     1
 76
     1
 77
     0
 78
     7
170
     0
171
     2
172
     0
173
     0
174
     0
175
     0
176
   256
177
   256
178
     2
  0
DIMSTYLE
  2
AM_ANSI$SH
 70
     0
  3

  4
mm
  5

  6

  7

 40
1.0
 41
0.1
 42
0.05
 43
0.5
 44
0.1
 45
0.0
 46
0.0
 47
0.1
 48
0.1
140
0.12
141
0.0
142
0.0
143
25.399999999999999
144
1.0
145
0.0
146
0.71
147
0.06
 71
     0
 72
     0
 73
     1
 74
     1
 75
     1
 76
     1
 77
     0
 78
     7
170
     0
171
     2
172
     0
173
     1
174
     0
175
     0
176
   256
177
   256
178
     2
  0
ENDTAB
  0
ENDSEC
  0
SECTION
  2
BLOCKS
  0
BLOCK
  8
0
  2
$MODEL_SPACE
 70
     0
 10
0.0
 20
0.0
 30
0.0
  3
$MODEL_SPACE
  1

  0
ENDBLK
  5
532
  8
0
  0
BLOCK
 67
     1
  8
0
  2
$PAPER_SPACE
 70
     0
 10
0.0
 20
0.0
 30
0.0
  3
$PAPER_SPACE
  1

  0
ENDBLK
  5
52E
 67
     1
  8
0
  0
BLOCK
  8
0
  2
GENAXEH
 70
     0
 10
0.0
 20
0.0
 30
0.0
  3
GENAXEH
  1

  0
LINE
  5
4F8
  8
0
 10
-1.0
 20
0.0
 30
0.0
 11
1.0
 21
0.0
 31
0.0
  0
ENDBLK
  5
4FA
  8
0
  0
ENDSEC
  0
SECTION
  2
ENTITIES
  0
LINE
  5
132
  8
0
  6
CONTINUOUS
 62
     7
 10
-150.5
 20
154.75
 30
0.0
 11
-150.5
 21
148.75
 31
0.0
  0
LINE
  5
133
  8
0
  6
CONTINUOUS
 62
     7
 10
39.5
 20
-1.25
 30
0.0
 11
39.5
 21
-22.25
 31
0.0
  0
LINE
  5
134
  8
0
  6
CENTER
 62
     7
 10
-110.4999999999999
 20
30.25
 30
0.0
 11
-110.4999999999999
 21
-53.75
 31
0.0
  0
LINE
  5
135
  8
0
  6
CENTER
 62
     7
 10
-152.5
 20
-11.75
 30
0.0
 11
41.5
 21
-11.75
 31
0.0
  0
LINE
  5
136
  8
0
  6
CONTINUOUS
 62
     7
 10
-110.4999999999999
 20
-0.25
 30
0.0
 11
38.5
 21
-0.25
 31
0.0
  0
LINE
  5
137
  8
0
  6
CONTINUOUS
 62
     7
 10
-104.29456
 20
-23.25
 30
0.0
 11
38.5
 21
-23.25
 31
0.0
  0
LINE
  5
138
  8
0
  6
CENTER
 62
     7
 10
-142.5
 20
-3.549999199999998
 30
0.0
 11
-142.5
 21
-19.950001
 31
0.0
  0
LINE
  5
139
  8
0
  6
CENTER
 62
     7
 10
-98.500000000000014
 20
-33.549999
 30
0.0
 11
-98.500000000000014
 21
-49.94999700000001
 31
0.0
  0
LINE
  5
13A
  8
0
  6
CENTER
 62
     7
 10
-90.300003000000004
 20
-41.749999999999993
 30
0.0
 11
-106.6999999999999
 21
-41.749999999999993
 31
0.0
  0
LINE
  5
13B
  8
0
  6
CENTER
 62
     7
 10
-98.500000000000014
 20
26.450001
 30
0.0
 11
-98.500000000000014
 21
10.049999
 31
0.0
  0
LINE
  5
13C
  8
0
  6
CENTER
 62
     7
 10
-90.300003000000004
 20
18.25
 30
0.0
 11
-106.6999999999999
 21
18.25
 31
0.0
  0
LINE
  5
13D
  8
0
  6
CONTINUOUS
 62
     7
 10
-130.4999999999998
 20
124.75
 30
0.0
 11
-90.5
 21
124.75
 31
0.0
  0
LINE
  5
13E
  8
0
  6
CONTINUOUS
 62
     7
 10
-120.48795
 20
94.749999999999986
 30
0.0
 11
19.5
 21
94.749999999999986
 31
0.0
  0
LINE
  5
13F
  8
0
  6
CONTINUOUS
 62
     7
 10
-150.5
 20
154.75
 30
0.0
 11
-70.5
 21
154.75
 31
0.0
  0
LINE
  5
140
  8
0
  6
CONTINUOUS
 62
     7
 10
-70.5
 20
154.75
 30
0.0
 11
-70.5
 21
148.75
 31
0.0
  0
LINE
  5
141
  8
0
  6
CONTINUOUS
 62
     7
 10
-149.5
 20
147.75
 30
0.0
 11
-71.49999200000002
 21
147.75
 31
0.0
  0
LINE
  5
142
  8
0
  6
CONTINUOUS
 62
     7
 10
-150.5
 20
148.75
 30
0.0
 11
-70.5
 21
148.75
 31
0.0
  0
LINE
  5
143
  8
0
  6
CENTER
 62
     7
 10
-110.4999999999999
 20
156.75
 30
0.0
 11
-110.4999999999999
 21
92.75
 31
0.0
  0
LINE
  5
144
  8
0
  6
CONTINUOUS
 62
     7
 10
-130.49997999999999
 20
124.7499899999999
 30
0.0
 11
-134.4567599999998
 21
147.5013899999999
 31
0.0
  0
LINE
  5
145
  8
0
  6
CONTINUOUS
 62
     7
 10
-90.499984999999995
 20
124.7499899999999
 30
0.0
 11
-86.543220999999988
 21
147.5013899999999
 31
0.0
  0
LINE
  5
146
  8
0
  6
CONTINUOUS
 62
     7
 10
-150.49997999999999
 20
148.74997999999991
 30
0.0
 11
-149.49997999999991
 21
147.74997999999991
 31
0.0
  0
LINE
  5
147
  8
0
  6
CONTINUOUS
 62
     7
 10
-70.5
 20
148.75
 30
0.0
 11
-71.49999200000002
 21
147.75
 31
0.0
  0
LINE
  5
148
  8
0
  6
CONTINUOUS
 62
     7
 10
-75.5
 20
109.7499999999999
 30
0.0
 11
17.968719
 21
109.7499999999999
 31
0.0
  0
LINE
  5
149
  8
0
  6
CONTINUOUS
 62
     7
 10
39.5
 20
123.75
 30
0.0
 11
39.5
 21
114.7499999999999
 31
0.0
  0
LINE
  5
14A
  8
0
  6
CONTINUOUS
 62
     7
 10
28.968719
 20
124.75
 30
0.0
 11
38.5
 21
124.75
 31
0.0
  0
LINE
  5
14B
  8
0
  6
CONTINUOUS
 62
     7
 10
-130.4999999999998
 20
124.75
 30
0.0
 11
-122.4121899999999
 21
96.204796000000016
 31
0.0
  0
LINE
  5
150
  8
0
  6
CONTINUOUS
 62
     7
 10
27.968719
 20
123.75
 30
0.0
 11
27.968719
 21
119.75
 31
0.0
  0
LINE
  5
151
  8
0
  6
CENTER
 62
     7
 10
-137.17757999999981
 20
-85.046028000000007
 30
0.0
 11
-105.5863999999999
 21
1.7499998999999991
 31
0.0
  0
LINE
  5
152
  8
0
  6
CONTINUOUS
 62
     7
 10
-136.0582399999999
 20
-55.656452000000002
 30
0.0
 11
-119.14378000000001
 21
-61.812812999999998
 31
0.0
  0
LINE
  5
153
  8
0
  6
CONTINUOUS
 62
     7
 10
-144.6087499999999
 20
-79.148766000000023
 30
0.0
 11
-127.69428000000001
 21
-85.305130000000005
 31
0.0
  0
LINE
  5
154
  8
0
  6
CONTINUOUS
 62
     7
 10
-130.15932000000001
 20
-37.764525999999989
 30
0.0
 11
-136.0582399999999
 21
-55.656452000000002
 31
0.0
  0
LINE
  5
155
  8
0
  6
CONTINUOUS
 62
     7
 10
-112.16190999999991
 20
-44.31504799999999
 30
0.0
 11
-119.1437699999999
 21
-61.812812999999998
 31
0.0
  0
LINE
  5
156
  8
0
  6
CONTINUOUS
 62
     7
 10
-127.60101
 20
-58.734634
 30
0.0
 11
-121.9213899999999
 21
-10.407700999999999
 31
0.0
  0
LINE
  5
157
  8
0
  6
CONTINUOUS
 62
     7
 10
-127.60101
 20
-58.73462700000001
 30
0.0
 11
-104.29456
 21
-23.249995999999989
 31
0.0
  0
LINE
  5
158
  8
0
  6
CENTER
 62
     7
 10
-147.60874999999999
 20
108.75
 30
0.0
 11
-122.84857
 21
108.75
 31
0.0
  0
LINE
  5
15C
  8
0
  6
CONTINUOUS
 62
     7
 10
-122.97206
 20
98.180840000000003
 30
0.0
 11
-129.71725000000001
 21
100.03632
 31
0.0
  0
ARC
  5
1D7
  8
0
  6
CONTINUOUS
 62
     7
 10
-110.4999999999999
 20
-11.75
 30
0.0
 40
40.0
 50
16.708342999999999
 51
236.49701999999999
  0
ARC
  5
1D8
  8
0
  6
CONTINUOUS
 62
     7
 10
-110.4999999999999
 20
-11.75
 30
0.0
 40
39.0
 50
17.149849
 51
236.0959499999999
  0
ARC
  5
1D9
  8
0
  6
CONTINUOUS
 62
     7
 10
-110.4999999999999
 20
-11.75
 30
0.0
 40
11.5
 50
89.99998199999996
 51
173.29707999999991
  0
CIRCLE
  5
1DA
  8
0
  6
CONTINUOUS
 62
     7
 10
-98.500000000000014
 20
18.25
 30
0.0
 40
3.25
  0
CIRCLE
  5
1DB
  8
0
  6
CONTINUOUS
 62
     7
 10
-142.5
 20
-11.75
 30
0.0
 40
3.25
  0
CIRCLE
  5
1DC
  8
0
  6
CONTINUOUS
 62
     7
 10
-98.500000000000014
 20
-41.749999999999993
 30
0.0
 40
3.25
  0
ARC
  5
1DD
  8
0
  6
CONTINUOUS
 62
     7
 10
-110.4999999999999
 20
-11.75
 30
0.0
 40
24.0
 50
28.630987999999991
 51
221.72851
  0
ARC
  5
1DE
  8
0
  6
CONTINUOUS
 62
     7
 10
-110.4999999999999
 20
-11.75
 30
0.0
 40
20.0
 50
35.099632
 51
195.8865899999999
  0
CIRCLE
  5
1DF
  8
0
  6
CONTINUOUS
 62
     7
 10
-98.500000000000014
 20
-41.749999999999993
 30
0.0
 40
6.1999997999999987
  0
CIRCLE
  5
1E0
  8
0
  6
CONTINUOUS
 62
     7
 10
-98.500000000000014
 20
18.25
 30
0.0
 40
6.1999997999999987
  0
CIRCLE
  5
1E1
  8
0
  6
CONTINUOUS
 62
     7
 10
-142.5
 20
-11.75
 30
0.0
 40
6.1999997999999987
  0
ARC
  5
1E2
  8
0
  6
CONTINUOUS
 62
     7
 10
38.5
 20
-1.25
 30
0.0
 40
1.0
 50
0.0
 51
89.99998199999996
  0
ARC
  5
1E3
  8
0
  6
CONTINUOUS
 62
     7
 10
38.5
 20
-22.25
 30
0.0
 40
1.0
 50
270.00002000000001
 51
0.0
  0
ARC
  5
1E9
  8
0
  6
CONTINUOUS
 62
     7
 10
-86.247664999999984
 20
147.4499999999999
 30
0.0
 40
0.30000001
 50
89.99998199999996
 51
170.13359
  0
ARC
  5
1EA
  8
0
  6
CONTINUOUS
 62
     7
 10
-134.7523299999998
 20
147.4499999999999
 30
0.0
 40
0.30000001
 50
9.8652451999999986
 51
89.99998199999996
  0
ARC
  5
1EB
  8
0
  6
CONTINUOUS
 62
     7
 10
19.5
 20
114.7499999999999
 30
0.0
 40
20.0
 50
270.00002000000001
 51
0.0
  0
ARC
  5
1EC
  8
0
  6
CONTINUOUS
 62
     7
 10
-120.48795
 20
96.75
 30
0.0
 40
2.0
 50
195.81925000000001
 51
270.00002000000001
  0
ARC
  5
1ED
  8
0
  6
CONTINUOUS
 62
     7
 10
-75.5
 20
124.75
 30
0.0
 40
15.0
 50
179.99997999999991
 51
270.00002999999992
  0
ARC
  5
1EE
  8
0
  6
CONTINUOUS
 62
     7
 10
28.968719
 20
123.75
 30
0.0
 40
1.0
 50
89.99998199999996
 51
176.41669999999999
  0
ARC
  5
1EF
  8
0
  6
CONTINUOUS
 62
     7
 10
38.5
 20
123.75
 30
0.0
 40
1.0
 50
0.0
 51
89.99998199999996
  0
ARC
  5
1F3
  8
0
  6
CONTINUOUS
 62
     7
 10
17.968719
 20
119.75
 30
0.0
 40
10.0
 50
270.00002000000001
 51
0.0
  0
CIRCLE
  5
1F4
  8
0
  6
CONTINUOUS
 62
     7
 10
-144.1249999999998
 20
-14.56458299999999
 30
0.0
 40
0.4000000100000002
  0
CIRCLE
  5
1F5
  8
0
  6
CONTINUOUS
 62
     7
 10
-140.8749999999998
 20
-8.9354171999999998
 30
0.0
 40
0.4000000100000002
  0
ARC
  5
1F6
  8
0
  6
CONTINUOUS
 62
     7
 10
-110.4999999999999
 20
-11.75
 30
0.0
 40
20.0
 50
304.11342000000002
 51
324.90035
  0
ARC
  5
1F7
  8
0
  6
CONTINUOUS
 62
     7
 10
-163.39928999999981
 20
-26.80537
 30
0.0
 40
35.0
 50
341.75272000000001
 51
15.88658299999998
  0
ARC
  5
1F8
  8
0
  6
CONTINUOUS
 62
     7
 10
-79.65419
 20
-57.28609500000001
 30
0.0
 40
35.0
 50
124.11342
 51
158.24728999999991
  0
ARC
  5
1F9
  8
0
  6
CONTINUOUS
 62
     7
 10
-110.4999999999999
 20
-11.75
 30
0.0
 40
24.0
 50
278.27148999999991
 51
331.36900000000009
  0
ARC
  5
1FD
  8
0
  6
CONTINUOUS
 62
     7
 10
-110.4999999999999
 20
-11.75
 30
0.0
 40
40.0
 50
263.50297999999992
 51
343.29165
  0
ARC
  5
1FE
  8
0
  6
CONTINUOUS
 62
     7
 10
-110.4999999999999
 20
-11.75
 30
0.0
 40
39.0
 50
263.90404999999993
 51
342.85014000000001
  0
ARC
  5
1FF
  8
0
  6
CONTINUOUS
 62
     7
 10
-67.389931000000004
 20
-93.951904000000013
 30
0.0
 40
78.624923999999979
 50
150.85214999999999
 51
169.14785000000001
  0
ARC
  5
200
  8
0
  6
CONTINUOUS
 62
     7
 10
-196.3625899999999
 20
-47.009689000000002
 30
0.0
 40
78.624923999999979
 50
330.85214999999988
 51
349.14785999999992
  0
ARC
  5
201
  8
0
  6
CONTINUOUS
 62
     7
 10
-135.6087499999999
 20
108.75
 30
0.0
 40
9.0
 50
114.86841
 51
245.13158000000001
  0
ARC
  5
202
  8
0
  6
CONTINUOUS
 62
     7
 10
-130.98285000000001
 20
118.7300299999999
 30
0.0
 40
20.0
 50
245.1315899999999
 51
267.43970999999982
  0
ARC
  5
203
  8
0
  6
CONTINUOUS
 62
     7
 10
-130.98285000000001
 20
98.769965999999997
 30
0.0
 40
20.0
 50
92.560285000000007
 51
114.86841
  0
ARC
  5
204
  8
0
  6
CONTINUOUS
 62
     7
 10
-133.68264999999991
 20
123.68465
 30
0.0
 40
25.0
 50
274.14350999999988
 51
284.16244999999992
  0
ARC
  5
205
  8
0
  6
CONTINUOUS
 62
     7
 10
-133.68264999999991
 20
93.815346000000005
 30
0.0
 40
25.0
 50
78.445043999999996
 51
85.856460999999982
  0
POLYLINE
  5
323
  8
0
  6
CONTINUOUS
 62
     7
 66
     1
 10
0.0
 20
0.0
 30
0.0
  0
VERTEX
  5
324
  8
0
  6
CONTINUOUS
 62
     7
 10
-128.50075000000001
 20
117.6989199999999
 30
0.0
 42
0.04758749
  0
VERTEX
  5
325
  8
0
  6
CONTINUOUS
 62
     7
 10
-129.9889
 20
117.38381
 30
0.0
 42
0.046702087
  0
VERTEX
  5
326
  8
0
  6
CONTINUOUS
 62
     7
 10
-131.39186999999981
 20
116.79523
 30
0.0
 42
0.045449858
  0
VERTEX
  5
327
  8
0
  6
CONTINUOUS
 62
     7
 10
-132.66359
 20
115.95937000000001
 30
0.0
 42
0.044024163
  0
VERTEX
  5
328
  8
0
  6
CONTINUOUS
 62
     7
 10
-133.7663499999999
 20
114.9105999999999
 30
0.0
 42
0.042639109
  0
VERTEX
  5
329
  8
0
  6
CONTINUOUS
 62
     7
 10
-134.67206999999991
 20
113.68725000000001
 30
0.0
 42
0.04144397
  0
VERTEX
  5
32A
  8
0
  6
CONTINUOUS
 62
     7
 10
-135.36063999999979
 20
112.3293399999998
 30
0.0
 42
0.040538935
  0
VERTEX
  5
32B
  8
0
  6
CONTINUOUS
 62
     7
 10
-135.81864999999991
 20
110.87706
 30
0.0
 42
0.039982442
  0
VERTEX
  5
32C
  8
0
  6
CONTINUOUS
 62
     7
 10
-136.03813
 20
109.37025
 30
0.0
 42
0.039791296
  0
VERTEX
  5
32D
  8
0
  6
CONTINUOUS
 62
     7
 10
-136.01573999999999
 20
107.84878999999999
 30
0.0
 42
0.040038034
  0
VERTEX
  5
32E
  8
0
  6
CONTINUOUS
 62
     7
 10
-135.75194999999991
 20
106.3498
 30
0.0
 42
0.040660683
  0
VERTEX
  5
32F
  8
0
  6
CONTINUOUS
 62
     7
 10
-135.25095999999991
 20
104.9126
 30
0.0
 42
0.041630805
  0
VERTEX
  5
330
  8
0
  6
CONTINUOUS
 62
     7
 10
-134.52153000000001
 20
103.5768199999999
 30
0.0
 42
0.04288687
  0
VERTEX
  5
331
  8
0
  6
CONTINUOUS
 62
     7
 10
-133.5778099999998
 20
102.3824599999999
 30
0.0
 42
0.044308594
  0
VERTEX
  5
332
  8
0
  6
CONTINUOUS
 62
     7
 10
-132.4410899999998
 20
101.36960000000001
 30
0.0
 42
0.045727448
  0
VERTEX
  5
333
  8
0
  6
CONTINUOUS
 62
     7
 10
-131.14126999999991
 20
100.57649000000001
 30
0.0
 42
0.046937378
  0
VERTEX
  5
334
  8
0
  6
CONTINUOUS
 62
     7
 10
-129.71768
 20
100.03643
 30
0.0
  0
SEQEND
  5
335
  8
0
 62
     7
  0
TEXT
  5
3EF
  8
0
  6
CONTINUOUS
 62
     7
 10
-175.12873999999999
 20
-28.891763000000001
 30
0.0
 40
2.5
  1
30
 50
89.900002000000001
 41
1.102041
  0
LINE
  5
3F0
  8
0
  6
CONTINUOUS
 62
     7
 10
-174.5
 20
-41.749999999999993
 30
0.0
 11
-174.5
 21
-26.75
 31
0.0
  0
CIRCLE
  5
3F1
  8
0
  6
CONTINUOUS
 62
     7
 10
-174.5
 20
-41.749999999999993
 30
0.0
 40
0.3
  0
LINE
  5
3F2
  8
0
  6
CONTINUOUS
 62
     7
 10
-174.5
 20
-11.75
 30
0.0
 11
-174.5
 21
-26.75
 31
0.0
  0
CIRCLE
  5
3F3
  8
0
  6
CONTINUOUS
 62
     7
 10
-174.5
 20
-11.75
 30
0.0
 40
0.3
  0
LINE
  5
3F4
  8
0
  6
CONTINUOUS
 62
     7
 10
-156.49893268413669
 20
-11.75
 30
0.0
 11
-176.7859999999998
 21
-11.75
 31
0.0
  0
TEXT
  5
3F5
  8
0
  6
CONTINUOUS
 62
     7
 10
-175.12873999999999
 20
1.1082365000000001
 30
0.0
 40
2.5
  1
30
 50
89.900002000000001
 41
1.102041
  0
LINE
  5
3F6
  8
0
  6
CONTINUOUS
 62
     7
 10
-174.5
 20
-11.75
 30
0.0
 11
-174.5
 21
3.25
 31
0.0
  0
CIRCLE
  5
3F7
  8
0
  6
CONTINUOUS
 62
     7
 10
-174.5
 20
-11.75
 30
0.0
 40
0.3
  0
LINE
  5
3F8
  8
0
  6
CONTINUOUS
 62
     7
 10
-174.5
 20
18.25
 30
0.0
 11
-174.5
 21
3.25
 31
0.0
  0
CIRCLE
  5
3F9
  8
0
  6
CONTINUOUS
 62
     7
 10
-174.5
 20
18.25
 30
0.0
 40
0.3
  0
TEXT
  5
3FA
  8
0
  6
CONTINUOUS
 62
     7
 10
-183.13310000000001
 20
-16.391760000000001
 30
0.0
 40
2.5
  1
60
 50
89.900002000000001
 41
1.102041
  0
LINE
  5
3FC
  8
0
  6
CONTINUOUS
 62
     7
 10
-182.5
 20
-41.749999999999993
 30
0.0
 11
-182.5
 21
-11.75
 31
0.0
  0
CIRCLE
  5
3FD
  8
0
  6
CONTINUOUS
 62
     7
 10
-182.5
 20
-41.749999999999993
 30
0.0
 40
0.3
  0
LINE
  5
3FE
  8
0
  6
CONTINUOUS
 62
     7
 10
-182.5
 20
18.25
 30
0.0
 11
-182.5
 21
-11.75
 31
0.0
  0
CIRCLE
  5
3FF
  8
0
  6
CONTINUOUS
 62
     7
 10
-182.5
 20
18.25
 30
0.0
 40
0.3
  0
LINE
  5
400
  8
0
  6
CONTINUOUS
 62
     7
 10
-106.6999999999999
 20
-41.749999999999993
 30
0.0
 11
-184.7859999999998
 21
-41.749999999999993
 31
0.0
  0
LINE
  5
401
  8
0
  6
CONTINUOUS
 62
     7
 10
-106.6999999999999
 20
18.25
 30
0.0
 11
-184.7859999999998
 21
18.25
 31
0.0
  0
TEXT
  5
402
  8
0
  6
CONTINUOUS
 62
     7
 10
-130.86161000000001
 20
52.875
 30
0.0
 40
2.5
  1
%%C80
 41
1.0621118999999981
  0
LINE
  5
403
  8
0
  6
CONTINUOUS
 62
     7
 10
-150.5
 20
52.25
 30
0.0
 11
-110.4999999999999
 21
52.25
 31
0.0
  0
CIRCLE
  5
404
  8
0
  6
CONTINUOUS
 62
     7
 10
-150.5
 20
52.25
 30
0.0
 40
0.3
  0
LINE
  5
405
  8
0
  6
CONTINUOUS
 62
     7
 10
-70.5
 20
52.25
 30
0.0
 11
-110.4999999999999
 21
52.25
 31
0.0
  0
CIRCLE
  5
406
  8
0
  6
CONTINUOUS
 62
     7
 10
-70.5
 20
52.25
 30
0.0
 40
0.3
  0
LINE
  5
407
  8
0
  6
CONTINUOUS
 62
     7
 10
-150.5
 20
-11.75
 30
0.0
 11
-150.5
 21
54.535998999999997
 31
0.0
  0
LINE
  5
408
  8
0
  6
CONTINUOUS
 62
     7
 10
-70.5
 20
-11.75
 30
0.0
 11
-70.5
 21
54.535998999999997
 31
0.0
  0
TEXT
  5
409
  8
0
  6
CONTINUOUS
 62
     7
 10
-38.89285799999999
 20
60.875
 30
0.0
 40
2.5
  1
150
 41
1.221428699999999
  0
LINE
  5
40A
  8
0
  6
CONTINUOUS
 62
     7
 10
-110.4999999999999
 20
60.25
 30
0.0
 11
-35.5
 21
60.25
 31
0.0
  0
CIRCLE
  5
40B
  8
0
  6
CONTINUOUS
 62
     7
 10
-110.4999999999999
 20
60.25
 30
0.0
 40
0.3
  0
LINE
  5
40C
  8
0
  6
CONTINUOUS
 62
     7
 10
39.5
 20
60.25
 30
0.0
 11
-35.5
 21
60.25
 31
0.0
  0
CIRCLE
  5
40D
  8
0
  6
CONTINUOUS
 62
     7
 10
39.5
 20
60.25
 30
0.0
 40
0.3
  0
LINE
  5
40E
  8
0
  6
CONTINUOUS
 62
     7
 10
-110.4999999999999
 20
30.25
 30
0.0
 11
-110.4999999999999
 21
62.535998999999997
 31
0.0
  0
LINE
  5
40F
  8
0
  6
CONTINUOUS
 62
     7
 10
39.5
 20
-0.25
 30
0.0
 11
39.5
 21
62.535998999999997
 31
0.0
  0
TEXT
  5
414
  8
0
  6
CONTINUOUS
 62
     7
 10
46.87126099999999
 20
-13.89176299999999
 30
0.0
 40
2.5
  1
23
 50
89.900002000000001
 41
1.0285716
  0
LINE
  5
415
  8
0
  6
CONTINUOUS
 62
     7
 10
47.5
 20
-0.25
 30
0.0
 11
47.5
 21
-11.75
 31
0.0
  0
CIRCLE
  5
416
  8
0
  6
CONTINUOUS
 62
     7
 10
47.5
 20
-0.25
 30
0.0
 40
0.3
  0
LINE
  5
417
  8
0
  6
CONTINUOUS
 62
     7
 10
47.5
 20
-23.25
 30
0.0
 11
47.5
 21
-11.75
 31
0.0
  0
CIRCLE
  5
418
  8
0
  6
CONTINUOUS
 62
     7
 10
47.5
 20
-23.25
 30
0.0
 40
0.3
  0
LINE
  5
419
  8
0
  6
CONTINUOUS
 62
     7
 10
39.5
 20
-0.25
 30
0.0
 11
49.785998999999983
 21
-0.25
 31
0.0
  0
LINE
  5
41A
  8
0
  6
CONTINUOUS
 62
     7
 10
39.568386337887773
 20
-23.25
 30
0.0
 11
49.785998999999983
 21
-23.25
 31
0.0
  0
TEXT
  5
41B
  8
0
  6
CONTINUOUS
 62
     7
 10
46.87126099999999
 20
107.6082399999999
 30
0.0
 40
2.5
  1
30
 50
89.900002000000001
 41
1.102041
  0
LINE
  5
41C
  8
0
  6
CONTINUOUS
 62
     7
 10
47.5
 20
94.749999999999986
 30
0.0
 11
47.5
 21
109.7499999999999
 31
0.0
  0
CIRCLE
  5
41D
  8
0
  6
CONTINUOUS
 62
     7
 10
47.5
 20
94.749999999999986
 30
0.0
 40
0.3
  0
LINE
  5
41E
  8
0
  6
CONTINUOUS
 62
     7
 10
47.5
 20
124.75
 30
0.0
 11
47.5
 21
109.7499999999999
 31
0.0
  0
CIRCLE
  5
41F
  8
0
  6
CONTINUOUS
 62
     7
 10
47.5
 20
124.75
 30
0.0
 40
0.3
  0
LINE
  5
420
  8
0
  6
CONTINUOUS
 62
     7
 10
38.5
 20
124.75
 30
0.0
 11
49.785998999999983
 21
124.75
 31
0.0
  0
TEXT
  5
421
  8
0
  6
CONTINUOUS
 62
     7
 10
46.87126099999999
 20
137.60824
 30
0.0
 40
2.5
  1
30
 50
89.900002000000001
 41
1.102041
  0
LINE
  5
422
  8
0
  6
CONTINUOUS
 62
     7
 10
47.5
 20
124.75
 30
0.0
 11
47.5
 21
139.7499999999998
 31
0.0
  0
CIRCLE
  5
423
  8
0
  6
CONTINUOUS
 62
     7
 10
47.5
 20
124.75
 30
0.0
 40
0.3
  0
LINE
  5
424
  8
0
  6
CONTINUOUS
 62
     7
 10
47.5
 20
154.75
 30
0.0
 11
47.5
 21
139.7499999999998
 31
0.0
  0
CIRCLE
  5
425
  8
0
  6
CONTINUOUS
 62
     7
 10
47.5
 20
154.75
 30
0.0
 40
0.3
  0
TEXT
  5
426
  8
0
  6
CONTINUOUS
 62
     7
 10
54.871260999999997
 20
122.6082399999999
 30
0.0
 40
2.5
  1
60
 50
89.900002000000001
 41
1.102041
  0
LINE
  5
427
  8
0
  6
CONTINUOUS
 62
     7
 10
55.5
 20
94.749999999999986
 30
0.0
 11
55.5
 21
124.75
 31
0.0
  0
CIRCLE
  5
428
  8
0
  6
CONTINUOUS
 62
     7
 10
55.5
 20
94.749999999999986
 30
0.0
 40
0.3
  0
LINE
  5
429
  8
0
  6
CONTINUOUS
 62
     7
 10
55.5
 20
154.75
 30
0.0
 11
55.5
 21
124.75
 31
0.0
  0
CIRCLE
  5
42A
  8
0
  6
CONTINUOUS
 62
     7
 10
55.5
 20
154.75
 30
0.0
 40
0.3
  0
LINE
  5
42B
  8
0
  6
CONTINUOUS
 62
     7
 10
19.5
 20
94.749999999999986
 30
0.0
 11
57.78599899999999
 21
94.749999999999986
 31
0.0
  0
LINE
  5
42C
  8
0
  6
CONTINUOUS
 62
     7
 10
-70.5
 20
154.75
 30
0.0
 11
57.78599899999999
 21
154.75
 31
0.0
  0
TEXT
  5
435
  8
0
  6
CONTINUOUS
 62
     7
 10
-19.375
 20
88.141879000000003
 30
0.0
 40
2.5
  1
15
 50
90.000003000000007
 41
1.2857145000000001
  0
LINE
  5
436
  8
0
  6
CONTINUOUS
 62
     7
 10
-18.75
 20
94.749999999999986
 30
0.0
 11
-18.75
 21
102.2499999999999
 31
0.0
  0
LINE
  5
437
  8
0
  6
CONTINUOUS
 62
     7
 10
-18.75
 20
102.2499999999999
 30
0.0
 11
-18.75
 21
88.141875999999982
 31
0.0
  0
CIRCLE
  5
438
  8
0
  6
CONTINUOUS
 62
     7
 10
-18.75
 20
94.749999999999986
 30
0.0
 40
0.3
  0
LINE
  5
439
  8
0
  6
CONTINUOUS
 62
     7
 10
-18.75
 20
109.7499999999999
 30
0.0
 11
-18.75
 21
102.2499999999999
 31
0.0
  0
CIRCLE
  5
43A
  8
0
  6
CONTINUOUS
 62
     7
 10
-18.75
 20
109.7499999999999
 30
0.0
 40
0.3
  0
TEXT
  5
443
  8
0
  6
CONTINUOUS
 62
     7
 10
-159.12656000000001
 20
150.35822999999979
 30
0.0
 40
2.5
  1
7
 50
89.900002000000001
 41
1.0714291
  0
LINE
  5
444
  8
0
  6
CONTINUOUS
 62
     7
 10
-158.4999999999998
 20
154.75
 30
0.0
 11
-158.4999999999998
 21
151.25
 31
0.0
  0
CIRCLE
  5
445
  8
0
  6
CONTINUOUS
 62
     7
 10
-158.4999999999998
 20
154.75
 30
0.0
 40
0.3
  0
LINE
  5
446
  8
0
  6
CONTINUOUS
 62
     7
 10
-158.4999999999998
 20
147.75
 30
0.0
 11
-158.4999999999998
 21
151.25
 31
0.0
  0
CIRCLE
  5
447
  8
0
  6
CONTINUOUS
 62
     7
 10
-158.4999999999998
 20
147.75
 30
0.0
 40
0.3
  0
LINE
  5
448
  8
0
  6
CONTINUOUS
 62
     7
 10
-149.5
 20
147.75
 30
0.0
 11
-160.786
 21
147.75
 31
0.0
  0
TEXT
  5
449
  8
0
  6
CONTINUOUS
 62
     7
 10
-159.12873999999979
 20
134.10823999999991
 30
0.0
 40
2.5
  1
23
 50
89.900002000000001
 41
1.0285716
  0
LINE
  5
44A
  8
0
  6
CONTINUOUS
 62
     7
 10
-158.4999999999998
 20
147.75
 30
0.0
 11
-158.4999999999998
 21
136.25
 31
0.0
  0
CIRCLE
  5
44B
  8
0
  6
CONTINUOUS
 62
     7
 10
-158.4999999999998
 20
147.75
 30
0.0
 40
0.3
  0
LINE
  5
44C
  8
0
  6
CONTINUOUS
 62
     7
 10
-158.4999999999998
 20
124.75
 30
0.0
 11
-158.4999999999998
 21
136.25
 31
0.0
  0
CIRCLE
  5
44D
  8
0
  6
CONTINUOUS
 62
     7
 10
-158.4999999999998
 20
124.75
 30
0.0
 40
0.3
  0
TEXT
  5
44E
  8
0
  6
CONTINUOUS
 62
     7
 10
-183.125
 20
137.60713999999979
 30
0.0
 40
2.5
  1
30
 50
90.000003000000007
 41
1.102041
  0
LINE
  5
44F
  8
0
  6
CONTINUOUS
 62
     7
 10
-182.5
 20
154.75
 30
0.0
 11
-182.5
 21
139.7499999999998
 31
0.0
  0
CIRCLE
  5
450
  8
0
  6
CONTINUOUS
 62
     7
 10
-182.5
 20
154.75
 30
0.0
 40
0.3
  0
LINE
  5
451
  8
0
  6
CONTINUOUS
 62
     7
 10
-182.5
 20
124.75
 30
0.0
 11
-182.5
 21
139.7499999999998
 31
0.0
  0
CIRCLE
  5
452
  8
0
  6
CONTINUOUS
 62
     7
 10
-182.5
 20
124.75
 30
0.0
 40
0.3
  0
LINE
  5
453
  8
0
  6
CONTINUOUS
 62
     7
 10
-150.5
 20
154.75
 30
0.0
 11
-184.7859999999998
 21
154.75
 31
0.0
  0
LINE
  5
454
  8
0
  6
CONTINUOUS
 62
     7
 10
-130.4999999999998
 20
124.75
 30
0.0
 11
-184.7859999999998
 21
124.75
 31
0.0
  0
TEXT
  5
455
  8
0
  6
CONTINUOUS
 62
     7
 10
-183.125
 20
107.6071399999999
 30
0.0
 40
2.5
  1
30
 50
90.000003000000007
 41
1.102041
  0
LINE
  5
456
  8
0
  6
CONTINUOUS
 62
     7
 10
-182.5
 20
124.75
 30
0.0
 11
-182.5
 21
109.7499999999999
 31
0.0
  0
CIRCLE
  5
457
  8
0
  6
CONTINUOUS
 62
     7
 10
-182.5
 20
124.75
 30
0.0
 40
0.3
  0
LINE
  5
458
  8
0
  6
CONTINUOUS
 62
     7
 10
-182.5
 20
94.749999999999986
 30
0.0
 11
-182.5
 21
109.7499999999999
 31
0.0
  0
CIRCLE
  5
459
  8
0
  6
CONTINUOUS
 62
     7
 10
-182.5
 20
94.749999999999986
 30
0.0
 40
0.3
  0
LINE
  5
45A
  8
0
  6
CONTINUOUS
 62
     7
 10
-120.48795
 20
94.749999999999986
 30
0.0
 11
-184.7859999999998
 21
94.749999999999986
 31
0.0
  0
LINE
  5
47F
  8
0
  6
CONTINUOUS
 62
     7
 10
-165.5060399999999
 20
-51.597529999999999
 30
0.0
 11
-200.69083000000001
 21
-51.597529999999999
 31
0.0
  0
LINE
  5
480
  8
0
  6
CONTINUOUS
 62
     7
 10
-145.60002
 20
-17.119357999999998
 30
0.0
 11
-165.50605999999991
 21
-51.597529999999999
 31
0.0
  0
LINE
  5
481
  8
0
  6
CONTINUOUS
 62
     7
 10
-139.40001000000001
 20
-6.3806428999999989
 30
0.0
 11
-145.60002
 21
-17.119357999999998
 31
0.0
  0
CIRCLE
  5
482
  8
0
  6
CONTINUOUS
 62
     7
 10
-139.40001000000001
 20
-6.3806428999999989
 30
0.0
 40
0.3
  0
LINE
  5
483
  8
0
  6
CONTINUOUS
 62
     7
 10
-145.60002
 20
-17.119357999999998
 30
0.0
 11
-139.40001000000001
 21
-6.3806428999999989
 31
0.0
  0
CIRCLE
  5
484
  8
0
  6
CONTINUOUS
 62
     7
 10
-145.60002
 20
-17.119357999999998
 30
0.0
 40
0.3
  0
TEXT
  5
485
  8
0
  6
CONTINUOUS
 62
     7
 10
-200.69083000000001
 20
-50.972529999999999
 30
0.0
 40
2.5
  1
３－%%C６．５ｘ%%C１２．４皿孔
 41
0.86343879
  0
TEXT
  5
486
  8
0
  6
CONTINUOUS
 62
     7
 10
-128.64286000000001
 20
36.875
 30
0.0
 40
2.5
  1
32
 41
1.0285716
  0
LINE
  5
487
  8
0
  6
CONTINUOUS
 62
     7
 10
-142.5
 20
36.25
 30
0.0
 11
-126.5
 21
36.25
 31
0.0
  0
CIRCLE
  5
488
  8
0
  6
CONTINUOUS
 62
     7
 10
-142.5
 20
36.25
 30
0.0
 40
0.3
  0
LINE
  5
489
  8
0
  6
CONTINUOUS
 62
     7
 10
-110.4999999999999
 20
36.25
 30
0.0
 11
-126.5
 21
36.25
 31
0.0
  0
CIRCLE
  5
48A
  8
0
  6
CONTINUOUS
 62
     7
 10
-110.4999999999999
 20
36.25
 30
0.0
 40
0.3
  0
TEXT
  5
48B
  8
0
  6
CONTINUOUS
 62
     7
 10
-106.64286
 20
36.875
 30
0.0
 40
2.5
  1
12
 41
1.2857145000000001
  0
LINE
  5
48C
  8
0
  6
CONTINUOUS
 62
     7
 10
-110.4999999999999
 20
36.25
 30
0.0
 11
-104.4999999999999
 21
36.25
 31
0.0
  0
CIRCLE
  5
48D
  8
0
  6
CONTINUOUS
 62
     7
 10
-110.4999999999999
 20
36.25
 30
0.0
 40
0.3
  0
LINE
  5
48E
  8
0
  6
CONTINUOUS
 62
     7
 10
-98.500000000000014
 20
36.25
 30
0.0
 11
-104.4999999999999
 21
36.25
 31
0.0
  0
CIRCLE
  5
48F
  8
0
  6
CONTINUOUS
 62
     7
 10
-98.500000000000014
 20
36.25
 30
0.0
 40
0.3
  0
TEXT
  5
490
  8
0
  6
CONTINUOUS
 62
     7
 10
-125.14286
 20
44.874999999999993
 30
0.0
 40
2.5
  1
44
 41
1.0285716
  0
LINE
  5
492
  8
0
  6
CONTINUOUS
 62
     7
 10
-142.5
 20
44.249999999999993
 30
0.0
 11
-120.5
 21
44.249999999999993
 31
0.0
  0
CIRCLE
  5
493
  8
0
  6
CONTINUOUS
 62
     7
 10
-142.5
 20
44.249999999999993
 30
0.0
 40
0.3
  0
LINE
  5
494
  8
0
  6
CONTINUOUS
 62
     7
 10
-98.500000000000014
 20
44.249999999999993
 30
0.0
 11
-120.5
 21
44.249999999999993
 31
0.0
  0
CIRCLE
  5
495
  8
0
  6
CONTINUOUS
 62
     7
 10
-98.500000000000014
 20
44.249999999999993
 30
0.0
 40
0.3
  0
LINE
  5
496
  8
0
  6
CONTINUOUS
 62
     7
 10
-142.5
 20
-3.549999199999998
 30
0.0
 11
-142.5
 21
46.535998999999983
 31
0.0
  0
LINE
  5
497
  8
0
  6
CONTINUOUS
 62
     7
 10
-98.500000000000014
 20
26.450001
 30
0.0
 11
-98.500000000000014
 21
46.535998999999983
 31
0.0
  0
TEXT
  5
498
  8
0
  6
CONTINUOUS
 62
     7
 10
-167.125
 20
134.6071399999999
 30
0.0
 40
2.5
  1
36
 50
90.000003000000007
 41
1.0285716
  0
LINE
  5
499
  8
0
  6
CONTINUOUS
 62
     7
 10
-166.5
 20
154.75
 30
0.0
 11
-166.5
 21
136.7499999999998
 31
0.0
  0
CIRCLE
  5
49A
  8
0
  6
CONTINUOUS
 62
     7
 10
-166.5
 20
154.75
 30
0.0
 40
0.3
  0
LINE
  5
49B
  8
0
  6
CONTINUOUS
 62
     7
 10
-166.5
 20
118.75
 30
0.0
 11
-166.5
 21
136.7499999999998
 31
0.0
  0
CIRCLE
  5
49C
  8
0
  6
CONTINUOUS
 62
     7
 10
-166.5
 20
118.75
 30
0.0
 40
0.3
  0
LINE
  5
49D
  8
0
  6
CONTINUOUS
 62
     7
 10
-131.87627000000001
 20
118.75
 30
0.0
 11
-168.7859999999998
 21
118.75
 31
0.0
  0
TEXT
  5
49E
  8
0
  6
CONTINUOUS
 62
     7
 10
-175.1249999999998
 20
129.6071399999999
 30
0.0
 40
2.5
  1
46
 50
90.000003000000007
 41
1.0285716
  0
LINE
  5
49F
  8
0
  6
CONTINUOUS
 62
     7
 10
-174.5
 20
154.75
 30
0.0
 11
-174.5
 21
131.75
 31
0.0
  0
CIRCLE
  5
4A0
  8
0
  6
CONTINUOUS
 62
     7
 10
-174.5
 20
154.75
 30
0.0
 40
0.3
  0
LINE
  5
4A1
  8
0
  6
CONTINUOUS
 62
     7
 10
-174.5
 20
108.75
 30
0.0
 11
-174.5
 21
131.75
 31
0.0
  0
CIRCLE
  5
4A2
  8
0
  6
CONTINUOUS
 62
     7
 10
-174.5
 20
108.75
 30
0.0
 40
0.3
  0
LINE
  5
4A3
  8
0
  6
CONTINUOUS
 62
     7
 10
-147.60874999999999
 20
108.75
 30
0.0
 11
-176.7859999999998
 21
108.75
 31
0.0
  0
ENDSEC
  0
EOF
