  0
SECTION
  2
HEADER
  9
$ACADVER
  1
AC1009
  9
$INSBASE
 10
0.0
 20
0.0
 30
0.0
  9
$EXTMIN
 10
-331.79160936362058
 20
-68.890746115579645
 30
-0.0015258207003583
  9
$EXTMAX
 10
8.7742625791279352
 20
240.12502374339959
 30
0.0000000349246037
  9
$LIMMIN
 10
0.0
 20
0.0
  9
$LIMMAX
 10
12.0
 20
9.0
  9
$ORTHOMODE
 70
     0
  9
$REGENMODE
 70
     1
  9
$FILLMODE
 70
     1
  9
$QTEXTMODE
 70
     0
  9
$MIRRTEXT
 70
     1
  9
$DRAGMODE
 70
     2
  9
$LTSCALE
 40
1.0
  9
$OSMODE
 70
    63
  9
$ATTMODE
 70
     1
  9
$TEXTSIZE
 40
0.2
  9
$TRACEWID
 40
0.05
  9
$TEXTSTYLE
  7
STANDARD
  9
$CLAYER
  8
0
  9
$CELTYPE
  6
CONTINUOUS
  9
$CECOLOR
 62
   256
  9
$DIMSCALE
 40
1.0
  9
$DIMASZ
 40
0.18
  9
$DIMEXO
 40
0.0625
  9
$DIMDLI
 40
0.38
  9
$DIMRND
 40
0.0
  9
$DIMDLE
 40
0.0
  9
$DIMEXE
 40
0.18
  9
$DIMTP
 40
0.0
  9
$DIMTM
 40
0.0
  9
$DIMTXT
 40
0.18
  9
$DIMCEN
 40
0.09
  9
$DIMTSZ
 40
0.0
  9
$DIMTOL
 70
     0
  9
$DIMLIM
 70
     0
  9
$DIMTIH
 70
     1
  9
$DIMTOH
 70
     1
  9
$DIMSE1
 70
     0
  9
$DIMSE2
 70
     0
  9
$DIMTAD
 70
     0
  9
$DIMZIN
 70
     0
  9
$DIMBLK
  1

  9
$DIMASO
 70
     1
  9
$DIMSHO
 70
     1
  9
$DIMPOST
  1

  9
$DIMAPOST
  1

  9
$DIMALT
 70
     0
  9
$DIMALTD
 70
     2
  9
$DIMALTF
 40
25.399999999999999
  9
$DIMLFAC
 40
1.0
  9
$DIMTOFL
 70
     0
  9
$DIMTVP
 40
0.0
  9
$DIMTIX
 70
     0
  9
$DIMSOXD
 70
     0
  9
$DIMSAH
 70
     0
  9
$DIMBLK1
  1

  9
$DIMBLK2
  1

  9
$DIMSTYLE
  2
STANDARD
  9
$DIMCLRD
 70
     0
  9
$DIMCLRE
 70
     0
  9
$DIMCLRT
 70
     0
  9
$DIMTFAC
 40
1.0
  9
$DIMGAP
 40
0.09
  9
$LUNITS
 70
     2
  9
$LUPREC
 70
     4
  9
$SKETCHINC
 40
0.1
  9
$FILLETRAD
 40
0.0
  9
$AUNITS
 70
     0
  9
$AUPREC
 70
     0
  9
$MENU
  1
.
  9
$ELEVATION
 40
0.0
  9
$PELEVATION
 40
0.0
  9
$THICKNESS
 40
0.0
  9
$LIMCHECK
 70
     0
  9
$BLIPMODE
 70
     0
  9
$CHAMFERA
 40
0.0
  9
$CHAMFERB
 40
0.0
  9
$SKPOLY
 70
     0
  9
$TDCREATE
 40
2452878.5013670018
  9
$TDUPDATE
 40
2452878.502105034
  9
$TDINDWG
 40
0.0007383912
  9
$TDUSRTIMER
 40
0.0007383912
  9
$USRTIMER
 70
     1
  9
$ANGBASE
 50
0.0
  9
$ANGDIR
 70
     0
  9
$PDMODE
 70
     0
  9
$PDSIZE
 40
0.0
  9
$PLINEWID
 40
0.0
  9
$COORDS
 70
     0
  9
$SPLFRAME
 70
     0
  9
$SPLINETYPE
 70
     6
  9
$SPLINESEGS
 70
     8
  9
$ATTDIA
 70
     1
  9
$ATTREQ
 70
     1
  9
$HANDLING
 70
     1
  9
$HANDSEED
  5
492
  9
$SURFTAB1
 70
     6
  9
$SURFTAB2
 70
     6
  9
$SURFTYPE
 70
     6
  9
$SURFU
 70
     6
  9
$SURFV
 70
     6
  9
$UCSNAME
  2

  9
$UCSORG
 10
0.0
 20
0.0
 30
0.0
  9
$UCSXDIR
 10
1.0
 20
0.0
 30
0.0
  9
$UCSYDIR
 10
0.0
 20
1.0
 30
0.0
  9
$PUCSNAME
  2

  9
$PUCSORG
 10
0.0
 20
0.0
 30
0.0
  9
$PUCSXDIR
 10
1.0
 20
0.0
 30
0.0
  9
$PUCSYDIR
 10
0.0
 20
1.0
 30
0.0
  9
$USERI1
 70
     0
  9
$USERI2
 70
     0
  9
$USERI3
 70
     0
  9
$USERI4
 70
     0
  9
$USERI5
 70
     0
  9
$USERR1
 40
0.0
  9
$USERR2
 40
0.0
  9
$USERR3
 40
0.0
  9
$USERR4
 40
0.0
  9
$USERR5
 40
0.0
  9
$WORLDVIEW
 70
     1
  9
$SHADEDGE
 70
     3
  9
$SHADEDIF
 70
    70
  9
$TILEMODE
 70
     1
  9
$MAXACTVP
 70
    64
  9
$PLIMCHECK
 70
     0
  9
$PEXTMIN
 10
1.0000000000000000E+020
 20
1.0000000000000000E+020
 30
1.0000000000000000E+020
  9
$PEXTMAX
 10
-1.0000000000000000E+020
 20
-1.0000000000000000E+020
 30
-1.0000000000000000E+020
  9
$PLIMMIN
 10
0.0
 20
0.0
  9
$PLIMMAX
 10
12.0
 20
9.0
  9
$UNITMODE
 70
     0
  9
$VISRETAIN
 70
     1
  9
$PLINEGEN
 70
     0
  9
$PSLTSCALE
 70
     1
  0
ENDSEC
  0
SECTION
  2
TABLES
  0
TABLE
  2
VPORT
 70
     3
  0
VPORT
  2
*ACTIVE
 70
     0
 10
0.0
 20
0.0
 11
1.0
 21
1.0
 12
-161.50867339224629
 22
85.617138813910003
 13
0.0
 23
0.0
 14
1.0
 24
1.0
 15
0.0
 25
0.0
 16
0.0
 26
0.0
 36
1.0
 17
0.0
 27
0.0
 37
0.0
 40
311.2577222400601
 41
1.5242130750605321
 42
50.0
 43
0.0
 44
0.0
 50
0.0
 51
0.0
 71
     0
 72
   100
 73
     1
 74
     1
 75
     0
 76
     0
 77
     0
 78
     0
  0
ENDTAB
  0
TABLE
  2
LTYPE
 70
    19
  0
LTYPE
  2
CONTINUOUS
 70
     0
  3
Solid line
 72
    65
 73
     0
 40
0.0
  0
LTYPE
  2
DASHED
 70
     0
  3
__ __ __ __ __ __ __ __ __ __ __ __ __ __ __
 72
    65
 73
     2
 40
3.5
 49
2.0
 49
-1.5
  0
LTYPE
  2
CENTER
 70
     0
  3
____ _ ____ _ ____ _ ____ _ ____ _ ____ _ ____
 72
    65
 73
     4
 40
17.5
 49
13.0
 49
-1.5
 49
1.5
 49
-1.5
  0
LTYPE
  2
PHANTOM
 70
     0
  3
_____ _ _ _____ _ _ _____ _ _ _____ _ _ ____  
 72
    65
 73
     6
 40
15.5
 49
8.0
 49
-1.5
 49
1.5
 49
-1.5
 49
1.5
 49
-1.5
  0
LTYPE
  2
DOT
 70
     0
  3
. . . . . . . . . . . . . . . . . . . . . . . .
 72
    65
 73
     2
 40
0.25
 49
0.0
 49
-0.25
  0
LTYPE
  2
AM_ISO02W050
 70
     0
  3
__ __ __ __ __ __ __ __ __ __ __ __ __ __ __
 72
    65
 73
     2
 40
7.5
 49
6.0
 49
-1.5
  0
LTYPE
  2
AM_ISO08W050
 70
     0
  3
____ . ____ . ____ . ____ . ____ . ____ . ____
 72
    65
 73
     4
 40
18.0
 49
12.0
 49
-1.5
 49
3.0
 49
-1.5
  0
LTYPE
  2
AM_ISO09W050
 70
     0
  3
_____ . . _____ . . _____ . . ____ .. ____
 72
    65
 73
     6
 40
22.5
 49
12.0
 49
-1.5
 49
3.0
 49
-1.5
 49
3.0
 49
-1.5
  0
LTYPE
  2
AMCONSTR
 70
     0
  3
_______________________
 72
    65
 73
     2
 40
9999.0
 49
9999.0
 49
0.0
  0
LTYPE
  2
AM_ISO08W050X2
 70
     0
  3
__ . __ . __ . __ . __ . __
 72
    65
 73
     4
 40
9.0
 49
6.0
 49
-0.75
 49
1.5
 49
-0.75
  0
LTYPE
  2
AM_ISO02W050X2
 70
     0
  3
 _ _ _ _ _ _ _ _ _ _ _ _
 72
    65
 73
     2
 40
3.75
 49
3.0
 49
-0.75
  0
LTYPE
  2
AMZIGZAG
 70
     0
  3
/\/-/\/-/\/-/\/-/\/-/\/
 72
    65
 73
     2
 40
11.000099999999991
 49
0.0001
 49
-11.0
  0
LTYPE
  2
HIDDEN
 70
     0
  3
Hidden __ __ __ __ __ __ __ __ __ __ __ __ __ _
 72
    65
 73
     2
 40
0.375
 49
0.25
 49
-0.125
  0
LTYPE
  2
PHANTOM2
 70
     0
  3
Phantom (.5x) ___ _ _ ___ _ _ ___ _ _ ___ _ _
 72
    65
 73
     6
 40
1.25
 49
0.625
 49
-0.125
 49
0.125
 49
-0.125
 49
0.125
 49
-0.125
  0
LTYPE
  2
CENTER2
 70
     0
  3
Center (.5x) ___ _ ___ _ ___ _ ___ _ ___ _ ___
 72
    65
 73
     4
 40
1.125
 49
0.75
 49
-0.125
 49
0.125
 49
-0.125
  0
LTYPE
  2
HIDDEN2
 70
     0
  3
Hidden (.5x) _ _ _ _ _ _ _ _ _ _ _ _ _ _ _ _ _
 72
    65
 73
     2
 40
0.1875
 49
0.125
 49
-0.0625
  0
LTYPE
  2
AMZIGZAG2
 70
     0
  3
/\/-/\/-/\/-/\/-/\/-/\/
 72
    65
 73
     2
 40
0.4401
 49
0.0001
 49
-0.4400000000000001
  0
LTYPE
  2
ACANSTGB
 70
     0
  3
__ . . __ . .
 72
    65
 73
     6
 40
0.35433070866
 49
0.15748031496
 49
-0.03937007874
 49
0.03937007874
 49
-0.03937007874
 49
0.03937007874
 49
-0.03937007874
  0
LTYPE
  2
ACANSTGL
 70
     0
  3
_ _ _ _ _
 72
    65
 73
     2
 40
0.11811023622
 49
0.07874015748
 49
-0.03937007874
  0
ENDTAB
  0
TABLE
  2
LAYER
 70
     1
  0
LAYER
  2
0
 70
     0
 62
     7
  6
CONTINUOUS
  0
ENDTAB
  0
TABLE
  2
STYLE
 70
     4
  0
STYLE
  2
STANDARD
 70
     0
 40
0.0
 41
1.0
 50
0.0
 71
     0
 42
0.2
  3
txt
  4
BIGFONT
  0
STYLE
  2

 70
     1
 40
0.0
 41
1.0
 50
0.0
 71
     0
 42
0.2
  3
ltypeshp.shx
  4

  0
STYLE
  2
ACANSTS
 70
     0
 40
1.0
 41
1.0
 50
0.0
 71
     0
 42
0.2
  3
romans.shx
  4
extfont.shx
  0
STYLE
  2
ACANSGDT
 70
     0
 40
0.0
 41
1.0
 50
0.0
 71
     0
 42
0.2
  3
amgdtans.shx
  4

  0
ENDTAB
  0
TABLE
  2
VIEW
 70
     0
  0
ENDTAB
  0
TABLE
  2
UCS
 70
     0
  0
ENDTAB
  0
TABLE
  2
APPID
 70
     4
  0
APPID
  2
ACAD
 70
     0
  0
APPID
  2
MCAD_NO_VIS
 70
     0
  0
APPID
  2
ACAD_TEMP_GRAPHIC
 70
     0
  0
APPID
  2
ACATTRIBSERVICES
 70
     0
  0
ENDTAB
  0
TABLE
  2
DIMSTYLE
 70
     7
  0
DIMSTYLE
  2
STANDARD
 70
     0
  3

  4

  5

  6

  7

 40
1.0
 41
0.18
 42
0.0625
 43
0.38
 44
0.18
 45
0.0
 46
0.0
 47
0.0
 48
0.0
140
0.18
141
0.09
142
0.0
143
25.399999999999999
144
1.0
145
0.0
146
1.0
147
0.09
 71
     0
 72
     0
 73
     1
 74
     1
 75
     0
 76
     0
 77
     0
 78
     0
170
     0
171
     2
172
     0
173
     0
174
     0
175
     0
176
     0
177
     0
178
     0
  0
DIMSTYLE
  2
AM_ANSI
 70
     0
  3

  4
mm
  5

  6

  7

 40
1.0
 41
0.1
 42
0.05
 43
0.5
 44
0.1
 45
0.0
 46
0.0
 47
0.1
 48
0.1
140
0.12
141
0.0
142
0.0
143
25.399999999999999
144
1.0
145
0.0
146
0.71
147
0.06
 71
     0
 72
     0
 73
     1
 74
     1
 75
     0
 76
     0
 77
     0
 78
     7
170
     0
171
     2
172
     0
173
     0
174
     0
175
     0
176
   256
177
   256
178
     2
  0
DIMSTYLE
  2
AM_ANSI$3
 70
     0
  3

  4
mm
  5

  6

  7

 40
1.0
 41
0.1
 42
0.05
 43
0.5
 44
0.1
 45
0.0
 46
0.0
 47
0.1
 48
0.1
140
0.12
141
0.0
142
0.0
143
25.399999999999999
144
1.0
145
0.0
146
0.71
147
0.06
 71
     0
 72
     0
 73
     1
 74
     1
 75
     0
 76
     0
 77
     0
 78
     7
170
     0
171
     2
172
     0
173
     0
174
     0
175
     0
176
   256
177
   256
178
     2
  0
DIMSTYLE
  2
AM_ANSI$4
 70
     0
  3

  4
mm
  5

  6

  7

 40
1.0
 41
0.1
 42
0.05
 43
0.5
 44
0.1
 45
0.0
 46
0.0
 47
0.1
 48
0.1
140
0.12
141
0.0
142
0.0
143
25.399999999999999
144
1.0
145
0.0
146
0.71
147
0.06
 71
     0
 72
     0
 73
     1
 74
     1
 75
     0
 76
     0
 77
     0
 78
     7
170
     0
171
     2
172
     0
173
     0
174
     0
175
     0
176
   256
177
   256
178
     2
  0
DIMSTYLE
  2
AM_ANSI$7
 70
     0
  3

  4
mm
  5

  6

  7

 40
1.0
 41
0.1
 42
0.05
 43
0.5
 44
0.1
 45
0.0
 46
0.0
 47
0.1
 48
0.1
140
0.24
141
0.0
142
0.0
143
25.399999999999999
144
1.0
145
0.0
146
0.71
147
0.06
 71
     0
 72
     0
 73
     1
 74
     1
 75
     0
 76
     0
 77
     0
 78
     7
170
     0
171
     2
172
     0
173
     0
174
     0
175
     0
176
   256
177
   256
178
     2
  0
DIMSTYLE
  2
AM_ANSI$SF
 70
     0
  3

  4
mm
  5

  6

  7

 40
1.0
 41
0.1
 42
0.05
 43
0.5
 44
0.1
 45
0.0
 46
0.0
 47
0.1
 48
0.1
140
0.12
141
0.0
142
0.0
143
25.399999999999999
144
1.0
145
0.0
146
0.71
147
0.06
 71
     0
 72
     0
 73
     1
 74
     1
 75
     1
 76
     1
 77
     0
 78
     7
170
     0
171
     2
172
     0
173
     0
174
     0
175
     0
176
   256
177
   256
178
     2
  0
DIMSTYLE
  2
AM_ANSI$SH
 70
     0
  3

  4
mm
  5

  6
GENAXEH
  7

 40
1.0
 41
0.1
 42
0.05
 43
0.5
 44
0.1
 45
0.0
 46
0.0
 47
0.1
 48
0.1
140
0.12
141
0.0
142
0.0
143
25.399999999999999
144
1.0
145
0.0
146
0.71
147
0.06
 71
     0
 72
     0
 73
     1
 74
     1
 75
     1
 76
     1
 77
     0
 78
     7
170
     0
171
     2
172
     0
173
     1
174
     0
175
     0
176
   256
177
   256
178
     2
  0
ENDTAB
  0
ENDSEC
  0
SECTION
  2
BLOCKS
  0
BLOCK
  8
0
  2
$MODEL_SPACE
 70
     0
 10
0.0
 20
0.0
 30
0.0
  3
$MODEL_SPACE
  1

  0
ENDBLK
  5
20
  8
0
  0
BLOCK
 67
     1
  8
0
  2
$PAPER_SPACE
 70
     0
 10
0.0
 20
0.0
 30
0.0
  3
$PAPER_SPACE
  1

  0
ENDBLK
  5
1C
 67
     1
  8
0
  0
BLOCK
  8
0
  2
GENAXEH
 70
     0
 10
0.0
 20
0.0
 30
0.0
  3
GENAXEH
  1

  0
LINE
  5
479
  8
0
 10
-1.0
 20
0.0
 30
0.0
 11
1.0
 21
0.0
 31
0.0
  0
ENDBLK
  5
47B
  8
0
  0
ENDSEC
  0
SECTION
  2
ENTITIES
  0
LINE
  5
12D
  8
0
  6
CENTER
 62
     7
 10
-202.76471000000001
 20
239.36033999999989
 30
0.0
 11
-202.76471000000001
 21
67.701743999999991
 31
0.0
  0
LINE
  5
12E
  8
0
  6
CONTINUOUS
 62
     7
 10
-225.95734999999999
 20
206.11765
 30
0.0
 11
-202.76471000000001
 21
206.11765
 31
0.0
  0
LINE
  5
12F
  8
0
  6
CENTER
 62
     7
 10
-222.76470999999989
 20
114.45377999999999
 30
0.0
 11
-222.76470999999989
 21
97.176468
 31
0.0
  0
LINE
  5
130
  8
0
  6
CENTER
 62
     7
 10
-232.50261999999989
 20
106.1176499999999
 30
0.0
 11
-213.87551999999999
 21
106.1176499999999
 31
0.0
  0
LINE
  5
131
  8
0
  6
CENTER
 62
     7
 10
-181.96270999999999
 20
121.11765
 30
0.0
 11
-162.79570000000001
 21
121.11765
 31
0.0
  0
LINE
  5
132
  8
0
  6
CENTER
 62
     7
 10
-172.76471000000001
 20
129.25316000000001
 30
0.0
 11
-172.76471000000001
 21
111.97584000000001
 31
0.0
  0
LINE
  5
133
  8
0
  6
CENTER
 62
     7
 10
-172.76471000000001
 20
189.45377999999991
 30
0.0
 11
-172.76471000000001
 21
172.17646999999999
 31
0.0
  0
LINE
  5
134
  8
0
  6
CENTER
 62
     7
 10
-182.50262000000001
 20
181.11765
 30
0.0
 11
-163.87551999999999
 21
181.11765
 31
0.0
  0
LINE
  5
135
  8
0
  6
CENTER
 62
     7
 10
-222.76470999999989
 20
204.45377999999999
 30
0.0
 11
-222.76470999999989
 21
187.17646999999991
 31
0.0
  0
LINE
  5
136
  8
0
  6
CENTER
 62
     7
 10
-232.50261999999989
 20
196.11765
 30
0.0
 11
-213.87551999999999
 21
196.11765
 31
0.0
  0
LINE
  5
137
  8
0
  6
PHANTOM
 62
     7
 10
-213.76471000000001
 20
108.1176499999999
 30
0.0
 11
-191.76471000000001
 21
108.1176499999999
 31
0.0
  0
LINE
  5
138
  8
0
  6
PHANTOM
 62
     7
 10
-213.76471000000001
 20
76.117644999999996
 30
0.0
 11
-191.76471000000001
 21
76.117644999999996
 31
0.0
  0
LINE
  5
139
  8
0
  6
CONTINUOUS
 62
     7
 10
-225.95734999999999
 20
96.117644999999996
 30
0.0
 11
-202.76471000000001
 21
96.117644999999996
 31
0.0
  0
LINE
  5
13A
  8
0
  6
CONTINUOUS
 62
     7
 10
-22.764706
 20
160.71972999999991
 30
0.0
 11
-22.764706
 21
141.51555999999999
 31
0.0
  0
LINE
  5
13B
  8
0
  6
CENTER
 62
     7
 10
-312.16437000000002
 20
151.11764999999991
 30
0.0
 11
-20.099854000000001
 21
151.11764999999991
 31
0.0
  0
LINE
  5
13C
  8
0
  6
CENTER
 62
     7
 10
-202.76471000000001
 20
8.3529415
 30
0.0
 11
-202.76471000000001
 21
-68.870200999999994
 31
0.0
  0
LINE
  5
13D
  8
0
  6
CONTINUOUS
 62
     7
 10
-237.76471000000001
 20
-60.882354999999997
 30
0.0
 11
-147.76471000000001
 21
-60.882354999999997
 31
0.0
  0
LINE
  5
13E
  8
0
  6
CONTINUOUS
 62
     7
 10
-237.76471000000001
 20
-53.882354999999997
 30
0.0
 11
-237.76471000000001
 21
-60.882354999999997
 31
0.0
  0
LINE
  5
13F
  8
0
  6
CONTINUOUS
 62
     7
 10
-147.76471000000001
 20
-53.882354999999997
 30
0.0
 11
-147.76471000000001
 21
-60.882354999999997
 31
0.0
  0
LINE
  5
140
  8
0
  6
CONTINUOUS
 62
     7
 10
-234.22201999999999
 20
-50.88235499999999
 30
0.0
 11
-150.76470999999989
 21
-50.88235499999999
 31
0.0
  0
LINE
  5
141
  8
0
  6
CONTINUOUS
 62
     7
 10
-240.76471000000001
 20
-28.882352999999998
 30
0.0
 11
-27.764706
 21
-28.882352999999998
 31
0.0
  0
LINE
  5
142
  8
0
  6
CONTINUOUS
 62
     7
 10
-231.31683000000001
 20
-48.41901
 30
0.0
 11
-227.76471000000001
 21
-28.882355
 31
0.0
  0
LINE
  5
143
  8
0
  6
CONTINUOUS
 62
     7
 10
-177.76471000000001
 20
-28.882355
 30
0.0
 11
-174.21258999999989
 21
-48.41901
 31
0.0
  0
LINE
  5
144
  8
0
  6
CONTINUOUS
 62
     7
 10
-22.764706
 20
-5.8823527999999987
 30
0.0
 11
-22.764706
 21
-23.882352999999991
 31
0.0
  0
LINE
  5
145
  8
0
  6
CONTINUOUS
 62
     7
 10
-240.76471000000001
 20
-0.8823529499999999
 30
0.0
 11
-27.764706
 21
-0.8823529499999999
 31
0.0
  0
LINE
  5
146
  8
0
  6
CENTER
 62
     7
 10
-292.88234999999992
 20
-14.882353
 30
0.0
 11
-15.694015
 21
-14.882353
 31
0.0
  0
LINE
  5
147
  8
0
  6
CONTINUOUS
 62
     7
 10
-245.76470999999989
 20
138.61764999999991
 30
0.0
 11
-213.47695999999999
 21
125.24782999999999
 31
0.0
  0
LINE
  5
148
  8
0
  6
CONTINUOUS
 62
     7
 10
-245.76470999999989
 20
163.61764999999991
 30
0.0
 11
-213.47695999999999
 21
176.98747
 31
0.0
  0
LINE
  5
149
  8
0
  6
CONTINUOUS
 62
     7
 10
-158.65028000000001
 20
168.14058
 30
0.0
 11
-26.161133
 21
164.2182
 31
0.0
  0
LINE
  5
14A
  8
0
  6
CONTINUOUS
 62
     7
 10
-26.161135000000002
 20
138.01708999999991
 30
0.0
 11
-158.6502999999999
 21
134.09473
 31
0.0
  0
LINE
  5
14B
  8
0
  6
CONTINUOUS
 62
     7
 10
-277.76470999999998
 20
162.11764999999991
 30
0.0
 11
-277.76470999999998
 21
140.11765
 31
0.0
  0
LINE
  5
14C
  8
0
  6
CONTINUOUS
 62
     7
 10
-245.76470999999989
 20
163.61764999999991
 30
0.0
 11
-245.76470999999989
 21
138.61764999999991
 31
0.0
  0
LINE
  5
14D
  8
0
  6
CONTINUOUS
 62
     7
 10
-245.76470999999989
 20
-3.8823527999999992
 30
0.0
 11
-245.76470999999989
 21
-25.882352999999998
 31
0.0
  0
LINE
  5
14E
  8
0
  6
CONTINUOUS
 62
     7
 10
-277.76470999999998
 20
-3.8823527999999992
 30
0.0
 11
-277.76470999999998
 21
-25.882352999999998
 31
0.0
  0
LINE
  5
14F
  8
0
  6
CONTINUOUS
 62
     7
 10
-180.5425899999999
 20
-28.882352999999998
 30
0.0
 11
-62.008105999999998
 21
-39.870789000000002
 31
0.0
  0
LINE
  5
150
  8
0
  6
CONTINUOUS
 62
     7
 10
-58.830162000000001
 20
-37.647838999999998
 30
0.0
 11
-56.520988000000003
 21
-28.882352999999998
 31
0.0
  0
ARC
  5
1CD
  8
0
  6
CONTINUOUS
 62
     7
 10
62.235294000000003
 20
151.11764999999991
 30
0.0
 40
300.0
 50
170.73743999999991
 51
176.94483
  0
ARC
  5
1CE
  8
0
  6
CONTINUOUS
 62
     7
 10
-225.95734999999999
 20
198.11765
 30
0.0
 40
8.0
 50
90.000003000000007
 51
170.73743999999991
  0
ARC
  5
1CF
  8
0
  6
CONTINUOUS
 62
     7
 10
-225.95734999999999
 20
104.1176499999999
 30
0.0
 40
8.0
 50
189.26256000000001
 51
270.0
  0
ARC
  5
1D0
  8
0
  6
CONTINUOUS
 62
     7
 10
-202.76471000000001
 20
151.11764999999991
 30
0.0
 40
55.0
 50
270.0
 51
342.23826000000003
  0
CIRCLE
  5
1D1
  8
0
  6
CONTINUOUS
 62
     7
 10
-172.76471000000001
 20
121.11765
 30
0.0
 40
3.0999998999999989
  0
CIRCLE
  5
1D2
  8
0
  6
CONTINUOUS
 62
     7
 10
-172.76471000000001
 20
121.11765
 30
0.0
 40
6.1999997999999987
  0
CIRCLE
  5
1D3
  8
0
  6
CONTINUOUS
 62
     7
 10
-222.76470999999989
 20
106.1176499999999
 30
0.0
 40
6.1999997999999987
  0
CIRCLE
  5
1D4
  8
0
  6
CONTINUOUS
 62
     7
 10
-222.76470999999989
 20
106.1176499999999
 30
0.0
 40
3.0999998999999989
  0
CIRCLE
  5
1D5
  8
0
  6
CONTINUOUS
 62
     7
 10
-172.76471000000001
 20
181.11765
 30
0.0
 40
6.1999997999999987
  0
CIRCLE
  5
1D6
  8
0
  6
CONTINUOUS
 62
     7
 10
-172.76471000000001
 20
181.11765
 30
0.0
 40
3.0999998999999989
  0
CIRCLE
  5
1D7
  8
0
  6
CONTINUOUS
 62
     7
 10
-222.76470999999989
 20
196.11765
 30
0.0
 40
6.1999997999999987
  0
CIRCLE
  5
1D8
  8
0
  6
CONTINUOUS
 62
     7
 10
-222.76470999999989
 20
196.11765
 30
0.0
 40
3.0999998999999989
  0
ARC
  5
1D9
  8
0
  6
CONTINUOUS
 62
     7
 10
-202.76471000000001
 20
151.11764999999991
 30
0.0
 40
28.0
 50
63.26638299999999
 51
112.49363
  0
ARC
  5
1DA
  8
0
  6
PHANTOM
 62
     7
 10
-150.76470999999989
 20
92.117644999999996
 30
0.0
 40
65.0
 50
165.74995999999999
 51
194.25003000000001
  0
ARC
  5
1DB
  8
0
  6
PHANTOM
 62
     7
 10
-254.76471000000001
 20
92.117644999999996
 30
0.0
 40
65.0
 50
345.74997000000002
 51
14.25003299999999
  0
ARC
  5
1DC
  8
0
  6
CONTINUOUS
 62
     7
 10
-202.76471000000001
 20
151.11764999999991
 30
0.0
 40
55.0
 50
17.761745000000001
 51
90.000003000000007
  0
ARC
  5
1DD
  8
0
  6
DASHED
 62
     7
 10
-202.76471000000001
 20
151.11764999999991
 30
0.0
 40
55.0
 50
342.23826000000003
 51
17.761745000000001
  0
ARC
  5
1DE
  8
0
  6
CONTINUOUS
 62
     7
 10
-234.76471000000001
 20
-53.882354999999997
 30
0.0
 40
3.0
 50
90.000003000000007
 51
180.00001
  0
ARC
  5
1DF
  8
0
  6
CONTINUOUS
 62
     7
 10
-150.76470999999989
 20
-53.882354999999997
 30
0.0
 40
3.0
 50
0.0
 51
90.000003000000007
  0
ARC
  5
1E0
  8
0
  6
CONTINUOUS
 62
     7
 10
-234.26843
 20
-47.88235499999999
 30
0.0
 40
3.0
 50
270.0
 51
349.69515000000001
  0
ARC
  5
1E1
  8
0
  6
CONTINUOUS
 62
     7
 10
-171.2609699999999
 20
-47.88235499999999
 30
0.0
 40
3.0
 50
190.3048499999999
 51
270.0
  0
ARC
  5
1E2
  8
0
  6
CONTINUOUS
 62
     7
 10
-202.76471000000001
 20
151.11764999999991
 30
0.0
 40
28.0
 50
247.50637
 51
296.73361999999997
  0
ARC
  5
1E3
  8
0
  6
CONTINUOUS
 62
     7
 10
-26.264706
 20
160.71972999999991
 30
0.0
 40
3.5
 50
0.0
 51
88.304237000000001
  0
ARC
  5
1E4
  8
0
  6
CONTINUOUS
 62
     7
 10
-26.264706
 20
141.51555999999999
 30
0.0
 40
3.5
 50
271.69576000000001
 51
0.0
  0
ARC
  5
1E5
  8
0
  6
CONTINUOUS
 62
     7
 10
-156.43085999999991
 20
243.10772999999989
 30
0.0
 40
75.0
 50
243.26637999999991
 51
268.30423999999999
  0
ARC
  5
1E6
  8
0
  6
CONTINUOUS
 62
     7
 10
-156.43085999999991
 20
59.127563000000002
 30
0.0
 40
75.0
 50
91.695761000000005
 51
116.73362
  0
ARC
  5
1E7
  8
0
  6
DASHED
 62
     7
 10
62.235294000000003
 20
151.11764999999991
 30
0.0
 40
300.0
 50
176.94483
 51
183.05515999999989
  0
ARC
  5
1E8
  8
0
  6
CONTINUOUS
 62
     7
 10
62.235294000000003
 20
151.11764999999991
 30
0.0
 40
300.0
 50
183.05517
 51
189.17874
  0
ARC
  5
1E9
  8
0
  6
CONTINUOUS
 62
     7
 10
-261.76470999999998
 20
99.117644999999996
 30
0.0
 40
65.0
 50
75.749966999999984
 51
104.25003
  0
ARC
  5
1EA
  8
0
  6
CONTINUOUS
 62
     7
 10
-261.76470999999998
 20
203.11764999999991
 30
0.0
 40
65.0
 50
255.74996999999999
 51
284.25002999999992
  0
ARC
  5
1EB
  8
0
  6
CONTINUOUS
 62
     7
 10
-240.76471000000001
 20
-5.8823527999999987
 30
0.0
 40
5.0
 50
90.000003000000007
 51
180.00001
  0
ARC
  5
1EC
  8
0
  6
CONTINUOUS
 62
     7
 10
-240.76471000000001
 20
-23.882352999999991
 30
0.0
 40
5.0
 50
179.99998999999991
 51
270.0
  0
ARC
  5
1ED
  8
0
  6
CONTINUOUS
 62
     7
 10
-27.764706
 20
-5.8823527999999987
 30
0.0
 40
5.0
 50
0.0
 51
90.000003000000007
  0
ARC
  5
1EE
  8
0
  6
CONTINUOUS
 62
     7
 10
-27.764706
 20
-23.882352999999991
 30
0.0
 40
5.0
 50
270.0
 51
0.0
  0
ARC
  5
1EF
  8
0
  6
CONTINUOUS
 62
     7
 10
-261.76470999999998
 20
-66.882355000000004
 30
0.0
 40
65.0
 50
75.749966999999984
 51
104.25003
  0
ARC
  5
1F0
  8
0
  6
CONTINUOUS
 62
     7
 10
-261.76470999999998
 20
37.117645000000003
 30
0.0
 40
65.0
 50
255.74996999999999
 51
284.25002999999992
  0
ARC
  5
1F1
  8
0
  6
CONTINUOUS
 62
     7
 10
-61.731186000000001
 20
-36.883595
 30
0.0
 40
3.0
 50
264.70367999999991
 51
345.24135999999987
  0
CIRCLE
  5
37B
  8
0
  6
CONTINUOUS
 62
     7
 10
-174.31470999999999
 20
123.8023199999999
 30
0.0
 40
0.4000000100000001
  0
CIRCLE
  5
37C
  8
0
  6
CONTINUOUS
 62
     7
 10
-171.21470999999991
 20
118.4329699999999
 30
0.0
 40
0.4000000100000001
  0
CIRCLE
  5
37D
  8
0
  6
CONTINUOUS
 62
     7
 10
-169.66470000000001
 20
115.7482899999999
 30
0.0
 40
0.4000000100000001
  0
TEXT
  5
37E
  8
0
  6
CONTINUOUS
 62
     7
 10
-264.50756999999999
 20
236.91765000000001
 30
0.0
 40
3.2000000000000002
  1
32
 41
1.0285716
  0
LINE
  5
37F
  8
0
  6
CONTINUOUS
 62
     7
 10
-277.76470999999998
 20
236.11765
 30
0.0
 11
-261.76470999999998
 21
236.11765
 31
0.0
  0
CIRCLE
  5
380
  8
0
  6
CONTINUOUS
 62
     7
 10
-277.76470999999998
 20
236.11765
 30
0.0
 40
0.3
  0
LINE
  5
381
  8
0
  6
CONTINUOUS
 62
     7
 10
-245.76470999999989
 20
236.11765
 30
0.0
 11
-261.76470999999998
 21
236.11765
 31
0.0
  0
CIRCLE
  5
382
  8
0
  6
CONTINUOUS
 62
     7
 10
-245.76470999999989
 20
236.11765
 30
0.0
 40
0.3
  0
LINE
  5
383
  8
0
  6
CONTINUOUS
 62
     7
 10
-277.76470999999998
 20
164.11765
 30
0.0
 11
-277.76470999999998
 21
237.61765
 31
0.0
  0
LINE
  5
384
  8
0
  6
CONTINUOUS
 62
     7
 10
-245.76470999999989
 20
163.61764999999991
 30
0.0
 11
-245.76470999999989
 21
237.61765
 31
0.0
  0
TEXT
  5
385
  8
0
  6
CONTINUOUS
 62
     7
 10
-227.00756999999999
 20
236.91765000000001
 30
0.0
 40
3.2000000000000002
  1
43
 41
1.0285716
  0
LINE
  5
386
  8
0
  6
CONTINUOUS
 62
     7
 10
-245.76470999999989
 20
236.11765
 30
0.0
 11
-224.26471000000001
 21
236.11765
 31
0.0
  0
CIRCLE
  5
387
  8
0
  6
CONTINUOUS
 62
     7
 10
-245.76470999999989
 20
236.11765
 30
0.0
 40
0.3
  0
LINE
  5
388
  8
0
  6
CONTINUOUS
 62
     7
 10
-202.76471000000001
 20
236.11765
 30
0.0
 11
-224.26471000000001
 21
236.11765
 31
0.0
  0
CIRCLE
  5
389
  8
0
  6
CONTINUOUS
 62
     7
 10
-202.76471000000001
 20
236.11765
 30
0.0
 40
0.3
  0
LINE
  5
38A
  8
0
  6
CONTINUOUS
 62
     7
 10
-202.76471000000001
 20
239.36033999999989
 30
0.0
 11
-202.76471000000001
 21
234.61764999999991
 31
0.0
  0
TEXT
  5
38B
  8
0
  6
CONTINUOUS
 62
     7
 10
-117.10757
 20
236.91765000000001
 30
0.0
 40
3.2000000000000002
  1
180
 41
1.221428699999999
  0
LINE
  5
38C
  8
0
  6
CONTINUOUS
 62
     7
 10
-202.76471000000001
 20
236.11765
 30
0.0
 11
-112.76470999999999
 21
236.11765
 31
0.0
  0
CIRCLE
  5
38D
  8
0
  6
CONTINUOUS
 62
     7
 10
-202.76471000000001
 20
236.11765
 30
0.0
 40
0.3
  0
LINE
  5
38E
  8
0
  6
CONTINUOUS
 62
     7
 10
-22.764706
 20
236.11765
 30
0.0
 11
-112.76470999999999
 21
236.11765
 31
0.0
  0
CIRCLE
  5
38F
  8
0
  6
CONTINUOUS
 62
     7
 10
-22.764706
 20
236.11765
 30
0.0
 40
0.3
  0
LINE
  5
390
  8
0
  6
CONTINUOUS
 62
     7
 10
-22.764706
 20
160.71972999999991
 30
0.0
 11
-22.764706
 21
237.61765
 31
0.0
  0
TEXT
  5
391
  8
0
  6
CONTINUOUS
 62
     7
 10
-195.5075699999999
 20
226.9176499999999
 30
0.0
 40
3.2000000000000002
  1
90
 41
1.102041
  0
LINE
  5
392
  8
0
  6
CONTINUOUS
 62
     7
 10
-237.76471000000001
 20
226.11764999999991
 30
0.0
 11
-192.76471000000001
 21
226.11764999999991
 31
0.0
  0
CIRCLE
  5
393
  8
0
  6
CONTINUOUS
 62
     7
 10
-237.76471000000001
 20
226.11764999999991
 30
0.0
 40
0.3
  0
LINE
  5
394
  8
0
  6
CONTINUOUS
 62
     7
 10
-147.76471000000001
 20
226.11764999999991
 30
0.0
 11
-192.76471000000001
 21
226.11764999999991
 31
0.0
  0
CIRCLE
  5
395
  8
0
  6
CONTINUOUS
 62
     7
 10
-147.76471000000001
 20
226.11764999999991
 30
0.0
 40
0.3
  0
LINE
  5
396
  8
0
  6
CONTINUOUS
 62
     7
 10
-237.76471000000001
 20
151.11764999999991
 30
0.0
 11
-237.76471000000001
 21
227.61765
 31
0.0
  0
LINE
  5
397
  8
0
  6
CONTINUOUS
 62
     7
 10
-147.76471000000001
 20
151.11764999999991
 30
0.0
 11
-147.76471000000001
 21
227.61765
 31
0.0
  0
TEXT
  5
398
  8
0
  6
CONTINUOUS
 62
     7
 10
-233.00756999999999
 20
216.91765000000001
 30
0.0
 40
3.2000000000000002
  1
15
 41
1.2857145000000001
  0
LINE
  5
399
  8
0
  6
CONTINUOUS
 62
     7
 10
-237.76471000000001
 20
216.11764999999991
 30
0.0
 11
-230.26471000000001
 21
216.11764999999991
 31
0.0
  0
CIRCLE
  5
39A
  8
0
  6
CONTINUOUS
 62
     7
 10
-237.76471000000001
 20
216.11764999999991
 30
0.0
 40
0.3
  0
LINE
  5
39B
  8
0
  6
CONTINUOUS
 62
     7
 10
-222.76470999999989
 20
216.11764999999991
 30
0.0
 11
-230.26471000000001
 21
216.11764999999991
 31
0.0
  0
CIRCLE
  5
39C
  8
0
  6
CONTINUOUS
 62
     7
 10
-222.76470999999989
 20
216.11764999999991
 30
0.0
 40
0.3
  0
LINE
  5
39D
  8
0
  6
CONTINUOUS
 62
     7
 10
-222.76470999999989
 20
204.45377999999999
 30
0.0
 11
-222.76470999999989
 21
217.61764999999991
 31
0.0
  0
TEXT
  5
39E
  8
0
  6
CONTINUOUS
 62
     7
 10
-215.50756999999999
 20
216.91765000000001
 30
0.0
 40
3.2000000000000002
  1
20
 41
1.102041
  0
LINE
  5
39F
  8
0
  6
CONTINUOUS
 62
     7
 10
-222.76470999999989
 20
216.11764999999991
 30
0.0
 11
-212.76470999999989
 21
216.11764999999991
 31
0.0
  0
CIRCLE
  5
3A0
  8
0
  6
CONTINUOUS
 62
     7
 10
-222.76470999999989
 20
216.11764999999991
 30
0.0
 40
0.3
  0
LINE
  5
3A1
  8
0
  6
CONTINUOUS
 62
     7
 10
-202.76471000000001
 20
216.11764999999991
 30
0.0
 11
-212.76470999999989
 21
216.11764999999991
 31
0.0
  0
CIRCLE
  5
3A2
  8
0
  6
CONTINUOUS
 62
     7
 10
-202.76471000000001
 20
216.11764999999991
 30
0.0
 40
0.3
  0
TEXT
  5
3A3
  8
0
  6
CONTINUOUS
 62
     7
 10
-190.5075699999999
 20
216.91765000000001
 30
0.0
 40
3.2000000000000002
  1
30
 41
1.102041
  0
LINE
  5
3A4
  8
0
  6
CONTINUOUS
 62
     7
 10
-202.76471000000001
 20
216.11764999999991
 30
0.0
 11
-187.76471000000001
 21
216.11764999999991
 31
0.0
  0
CIRCLE
  5
3A5
  8
0
  6
CONTINUOUS
 62
     7
 10
-202.76471000000001
 20
216.11764999999991
 30
0.0
 40
0.3
  0
LINE
  5
3A6
  8
0
  6
CONTINUOUS
 62
     7
 10
-172.76471000000001
 20
216.11764999999991
 30
0.0
 11
-187.76471000000001
 21
216.11764999999991
 31
0.0
  0
CIRCLE
  5
3A7
  8
0
  6
CONTINUOUS
 62
     7
 10
-172.76471000000001
 20
216.11764999999991
 30
0.0
 40
0.3
  0
LINE
  5
3A8
  8
0
  6
CONTINUOUS
 62
     7
 10
-172.76471000000001
 20
189.45377999999991
 30
0.0
 11
-172.76471000000001
 21
217.61764999999991
 31
0.0
  0
TEXT
  5
3A9
  8
0
  6
CONTINUOUS
 62
     7
 10
-163.0075699999999
 20
216.91765000000001
 30
0.0
 40
3.2000000000000002
  1
25
 41
1.0285716
  0
LINE
  5
3AA
  8
0
  6
CONTINUOUS
 62
     7
 10
-172.76471000000001
 20
216.11764999999991
 30
0.0
 11
-160.26471000000001
 21
216.11764999999991
 31
0.0
  0
CIRCLE
  5
3AB
  8
0
  6
CONTINUOUS
 62
     7
 10
-172.76471000000001
 20
216.11764999999991
 30
0.0
 40
0.3
  0
LINE
  5
3AC
  8
0
  6
CONTINUOUS
 62
     7
 10
-147.76471000000001
 20
216.11764999999991
 30
0.0
 11
-160.26471000000001
 21
216.11764999999991
 31
0.0
  0
CIRCLE
  5
3AD
  8
0
  6
CONTINUOUS
 62
     7
 10
-147.76471000000001
 20
216.11764999999991
 30
0.0
 40
0.3
  0
TEXT
  5
3AE
  8
0
  6
CONTINUOUS
 62
     7
 10
-328.56470999999988
 20
146.77478999999991
 30
0.0
 40
3.2000000000000002
  1
110
 50
90.000003000000007
 41
1.436974999999999
  0
LINE
  5
3AF
  8
0
  6
CONTINUOUS
 62
     7
 10
-327.76470999999998
 20
96.117644999999996
 30
0.0
 11
-327.76470999999998
 21
151.11764999999991
 31
0.0
  0
CIRCLE
  5
3B0
  8
0
  6
CONTINUOUS
 62
     7
 10
-327.76470999999998
 20
96.117644999999996
 30
0.0
 40
0.3
  0
LINE
  5
3B1
  8
0
  6
CONTINUOUS
 62
     7
 10
-327.76470999999998
 20
206.11765
 30
0.0
 11
-327.76470999999998
 21
151.11764999999991
 31
0.0
  0
CIRCLE
  5
3B2
  8
0
  6
CONTINUOUS
 62
     7
 10
-327.76470999999998
 20
206.11765
 30
0.0
 40
0.3
  0
LINE
  5
3B3
  8
0
  6
CONTINUOUS
 62
     7
 10
-225.95734999999999
 20
96.117644999999996
 30
0.0
 11
-329.26470999999998
 21
96.117644999999996
 31
0.0
  0
LINE
  5
3B4
  8
0
  6
CONTINUOUS
 62
     7
 10
-225.95734999999999
 20
206.11765
 30
0.0
 11
-329.26470999999998
 21
206.11765
 31
0.0
  0
TEXT
  5
3B5
  8
0
  6
CONTINUOUS
 62
     7
 10
-318.56470999999999
 20
98.374787999999995
 30
0.0
 40
3.2000000000000002
  1
10
 50
90.000003000000007
 41
1.4025976999999989
  0
LINE
  5
3B6
  8
0
  6
CONTINUOUS
 62
     7
 10
-317.76470999999998
 20
96.117644999999996
 30
0.0
 11
-317.76470999999998
 21
101.1176499999999
 31
0.0
  0
CIRCLE
  5
3B7
  8
0
  6
CONTINUOUS
 62
     7
 10
-317.76470999999998
 20
96.117644999999996
 30
0.0
 40
0.3
  0
LINE
  5
3B8
  8
0
  6
CONTINUOUS
 62
     7
 10
-317.76470999999998
 20
106.1176499999999
 30
0.0
 11
-317.76470999999998
 21
101.1176499999999
 31
0.0
  0
CIRCLE
  5
3B9
  8
0
  6
CONTINUOUS
 62
     7
 10
-317.76470999999998
 20
106.1176499999999
 30
0.0
 40
0.3
  0
LINE
  5
3BA
  8
0
  6
CONTINUOUS
 62
     7
 10
-232.50261999999989
 20
106.1176499999999
 30
0.0
 11
-319.26470999999998
 21
106.1176499999999
 31
0.0
  0
TEXT
  5
3BB
  8
0
  6
CONTINUOUS
 62
     7
 10
-318.56470999999999
 20
148.37478999999999
 30
0.0
 40
3.2000000000000002
  1
90
 50
90.000003000000007
 41
1.102041
  0
LINE
  5
3BC
  8
0
  6
CONTINUOUS
 62
     7
 10
-317.76470999999998
 20
106.1176499999999
 30
0.0
 11
-317.76470999999998
 21
151.11764999999991
 31
0.0
  0
CIRCLE
  5
3BD
  8
0
  6
CONTINUOUS
 62
     7
 10
-317.76470999999998
 20
106.1176499999999
 30
0.0
 40
0.3
  0
LINE
  5
3BE
  8
0
  6
CONTINUOUS
 62
     7
 10
-317.76470999999998
 20
196.11765
 30
0.0
 11
-317.76470999999998
 21
151.11764999999991
 31
0.0
  0
CIRCLE
  5
3BF
  8
0
  6
CONTINUOUS
 62
     7
 10
-317.76470999999998
 20
196.11765
 30
0.0
 40
0.3
  0
LINE
  5
3C0
  8
0
  6
CONTINUOUS
 62
     7
 10
-232.50261999999989
 20
106.1176499999999
 30
0.0
 11
-319.26470999999998
 21
106.1176499999999
 31
0.0
  0
LINE
  5
3C1
  8
0
  6
CONTINUOUS
 62
     7
 10
-232.50261999999989
 20
196.11765
 30
0.0
 11
-319.26470999999998
 21
196.11765
 31
0.0
  0
TEXT
  5
3C2
  8
0
  6
CONTINUOUS
 62
     7
 10
-318.56470999999999
 20
198.37478999999999
 30
0.0
 40
3.2000000000000002
  1
10
 50
90.000003000000007
 41
1.4025976999999989
  0
LINE
  5
3C3
  8
0
  6
CONTINUOUS
 62
     7
 10
-317.76470999999998
 20
196.11765
 30
0.0
 11
-317.76470999999998
 21
201.11764999999991
 31
0.0
  0
CIRCLE
  5
3C4
  8
0
  6
CONTINUOUS
 62
     7
 10
-317.76470999999998
 20
196.11765
 30
0.0
 40
0.3
  0
LINE
  5
3C5
  8
0
  6
CONTINUOUS
 62
     7
 10
-317.76470999999998
 20
206.11765
 30
0.0
 11
-317.76470999999998
 21
201.11764999999991
 31
0.0
  0
CIRCLE
  5
3C6
  8
0
  6
CONTINUOUS
 62
     7
 10
-317.76470999999998
 20
206.11765
 30
0.0
 40
0.3
  0
TEXT
  5
3C7
  8
0
  6
CONTINUOUS
 62
     7
 10
-308.56470999999999
 20
127.4747899999999
 30
0.0
 40
3.2000000000000002
  1
〃
 50
90.000003000000007
 41
0.90036055
  0
LINE
  5
3C8
  8
0
  6
CONTINUOUS
 62
     7
 10
-307.76470999999998
 20
106.1176499999999
 30
0.0
 11
-307.76470999999998
 21
128.61765
 31
0.0
  0
CIRCLE
  5
3C9
  8
0
  6
CONTINUOUS
 62
     7
 10
-307.76470999999998
 20
106.1176499999999
 30
0.0
 40
0.3
  0
LINE
  5
3CA
  8
0
  6
CONTINUOUS
 62
     7
 10
-307.76470999999998
 20
151.11764999999991
 30
0.0
 11
-307.76470999999998
 21
128.61765
 31
0.0
  0
CIRCLE
  5
3CB
  8
0
  6
CONTINUOUS
 62
     7
 10
-307.76470999999998
 20
151.11764999999991
 30
0.0
 40
0.3
  0
TEXT
  5
3CC
  8
0
  6
CONTINUOUS
 62
     7
 10
-308.56470999999999
 20
172.4747899999999
 30
0.0
 40
3.2000000000000002
  1
〃
 50
90.000003000000007
 41
0.90036055
  0
LINE
  5
3CD
  8
0
  6
CONTINUOUS
 62
     7
 10
-307.76470999999998
 20
196.11765
 30
0.0
 11
-307.76470999999998
 21
173.61765
 31
0.0
  0
CIRCLE
  5
3CE
  8
0
  6
CONTINUOUS
 62
     7
 10
-307.76470999999998
 20
196.11765
 30
0.0
 40
0.3
  0
LINE
  5
3CF
  8
0
  6
CONTINUOUS
 62
     7
 10
-307.76470999999998
 20
151.11764999999991
 30
0.0
 11
-307.76470999999998
 21
173.61765
 31
0.0
  0
CIRCLE
  5
3D0
  8
0
  6
CONTINUOUS
 62
     7
 10
-307.76470999999998
 20
151.11764999999991
 30
0.0
 40
0.3
  0
TEXT
  5
3D1
  8
0
  6
CONTINUOUS
 62
     7
 10
-298.56470999999988
 20
148.59966
 30
0.0
 40
3.2000000000000002
  1
%%C26
 50
90.000003000000007
 41
1.0178572999999991
  0
LINE
  5
3D2
  8
0
  6
CONTINUOUS
 62
     7
 10
-297.76470999999998
 20
138.11765
 30
0.0
 11
-297.76470999999998
 21
151.11764999999991
 31
0.0
  0
CIRCLE
  5
3D3
  8
0
  6
CONTINUOUS
 62
     7
 10
-297.76470999999998
 20
138.11765
 30
0.0
 40
0.3
  0
LINE
  5
3D4
  8
0
  6
CONTINUOUS
 62
     7
 10
-297.76470999999998
 20
164.11765
 30
0.0
 11
-297.76470999999998
 21
151.11764999999991
 31
0.0
  0
CIRCLE
  5
3D5
  8
0
  6
CONTINUOUS
 62
     7
 10
-297.76470999999998
 20
164.11765
 30
0.0
 40
0.3
  0
LINE
  5
3D6
  8
0
  6
CONTINUOUS
 62
     7
 10
-261.76470999999998
 20
138.11765
 30
0.0
 11
-299.26470999999998
 21
138.11765
 31
0.0
  0
LINE
  5
3D7
  8
0
  6
CONTINUOUS
 62
     7
 10
-261.76470999999998
 20
164.11765
 30
0.0
 11
-299.26470999999998
 21
164.11765
 31
0.0
  0
TEXT
  5
3D8
  8
0
  6
CONTINUOUS
 62
     7
 10
-288.56470999999988
 20
148.59966
 30
0.0
 40
3.2000000000000002
  1
%%C22
 50
90.000003000000007
 41
1.0178572999999991
  0
LINE
  5
3D9
  8
0
  6
CONTINUOUS
 62
     7
 10
-287.76470999999998
 20
162.11764999999991
 30
0.0
 11
-287.76470999999998
 21
151.11764999999991
 31
0.0
  0
CIRCLE
  5
3DA
  8
0
  6
CONTINUOUS
 62
     7
 10
-287.76470999999998
 20
162.11764999999991
 30
0.0
 40
0.3
  0
LINE
  5
3DB
  8
0
  6
CONTINUOUS
 62
     7
 10
-287.76470999999998
 20
140.11765
 30
0.0
 11
-287.76470999999998
 21
151.11764999999991
 31
0.0
  0
CIRCLE
  5
3DC
  8
0
  6
CONTINUOUS
 62
     7
 10
-287.76470999999998
 20
140.11765
 30
0.0
 40
0.3
  0
LINE
  5
3DD
  8
0
  6
CONTINUOUS
 62
     7
 10
-277.76470999999998
 20
162.11764999999991
 30
0.0
 11
-289.26470999999998
 21
162.11764999999991
 31
0.0
  0
LINE
  5
3DE
  8
0
  6
CONTINUOUS
 62
     7
 10
-277.76470999999998
 20
140.11765
 30
0.0
 11
-289.26470999999998
 21
140.11765
 31
0.0
  0
TEXT
  5
3DF
  8
0
  6
CONTINUOUS
 62
     7
 10
-128.56470999999999
 20
105.8747899999999
 30
0.0
 40
3.2000000000000002
  1
25
 50
90.000003000000007
 41
1.0285716
  0
LINE
  5
3E0
  8
0
  6
CONTINUOUS
 62
     7
 10
-127.76470999999999
 20
96.117644999999996
 30
0.0
 11
-127.76470999999999
 21
108.61765
 31
0.0
  0
CIRCLE
  5
3E1
  8
0
  6
CONTINUOUS
 62
     7
 10
-127.76470999999999
 20
96.117644999999996
 30
0.0
 40
0.3
  0
LINE
  5
3E2
  8
0
  6
CONTINUOUS
 62
     7
 10
-127.76470999999999
 20
121.11765
 30
0.0
 11
-127.76470999999999
 21
108.61765
 31
0.0
  0
CIRCLE
  5
3E3
  8
0
  6
CONTINUOUS
 62
     7
 10
-127.76470999999999
 20
121.11765
 30
0.0
 40
0.3
  0
LINE
  5
3E4
  8
0
  6
CONTINUOUS
 62
     7
 10
-202.76471000000001
 20
96.117644999999996
 30
0.0
 11
-126.26470999999999
 21
96.117644999999996
 31
0.0
  0
LINE
  5
3E5
  8
0
  6
CONTINUOUS
 62
     7
 10
-162.79570000000001
 20
121.11765
 30
0.0
 11
-126.26470999999999
 21
121.11765
 31
0.0
  0
TEXT
  5
3E6
  8
0
  6
CONTINUOUS
 62
     7
 10
-128.56470999999999
 20
148.37478999999999
 30
0.0
 40
3.2000000000000002
  1
60
 50
90.000003000000007
 41
1.102041
  0
LINE
  5
3E7
  8
0
  6
CONTINUOUS
 62
     7
 10
-127.76470999999999
 20
121.11765
 30
0.0
 11
-127.76470999999999
 21
151.11764999999991
 31
0.0
  0
CIRCLE
  5
3E8
  8
0
  6
CONTINUOUS
 62
     7
 10
-127.76470999999999
 20
121.11765
 30
0.0
 40
0.3
  0
LINE
  5
3E9
  8
0
  6
CONTINUOUS
 62
     7
 10
-127.76470999999999
 20
181.11765
 30
0.0
 11
-127.76470999999999
 21
151.11764999999991
 31
0.0
  0
CIRCLE
  5
3EA
  8
0
  6
CONTINUOUS
 62
     7
 10
-127.76470999999999
 20
181.11765
 30
0.0
 40
0.3
  0
LINE
  5
3EB
  8
0
  6
CONTINUOUS
 62
     7
 10
-163.87551999999999
 20
181.11765
 30
0.0
 11
-126.26470999999999
 21
181.11765
 31
0.0
  0
TEXT
  5
3EC
  8
0
  6
CONTINUOUS
 62
     7
 10
-128.56470999999999
 20
190.8747899999999
 30
0.0
 40
3.2000000000000002
  1
25
 50
90.000003000000007
 41
1.0285716
  0
LINE
  5
3ED
  8
0
  6
CONTINUOUS
 62
     7
 10
-127.76470999999999
 20
181.11765
 30
0.0
 11
-127.76470999999999
 21
193.61765
 31
0.0
  0
CIRCLE
  5
3EE
  8
0
  6
CONTINUOUS
 62
     7
 10
-127.76470999999999
 20
181.11765
 30
0.0
 40
0.3
  0
LINE
  5
3EF
  8
0
  6
CONTINUOUS
 62
     7
 10
-127.76470999999999
 20
206.11765
 30
0.0
 11
-127.76470999999999
 21
193.61765
 31
0.0
  0
CIRCLE
  5
3F0
  8
0
  6
CONTINUOUS
 62
     7
 10
-127.76470999999999
 20
206.11765
 30
0.0
 40
0.3
  0
LINE
  5
3F1
  8
0
  6
CONTINUOUS
 62
     7
 10
-202.76471000000001
 20
206.11765
 30
0.0
 11
-126.26470999999999
 21
206.11765
 31
0.0
  0
TEXT
  5
3F2
  8
0
  6
CONTINUOUS
 62
     7
 10
-138.56470999999999
 20
138.39796000000001
 30
0.0
 40
3.2000000000000002
  1
〃
 50
90.000003000000007
 41
0.90036055
  0
LINE
  5
3F3
  8
0
  6
CONTINUOUS
 62
     7
 10
-137.76471000000001
 20
121.11765
 30
0.0
 11
-137.76471000000001
 21
136.11765
 31
0.0
  0
CIRCLE
  5
3F4
  8
0
  6
CONTINUOUS
 62
     7
 10
-137.76471000000001
 20
121.11765
 30
0.0
 40
0.3
  0
LINE
  5
3F5
  8
0
  6
CONTINUOUS
 62
     7
 10
-137.76471000000001
 20
151.11764999999991
 30
0.0
 11
-137.76471000000001
 21
136.11765
 31
0.0
  0
CIRCLE
  5
3F6
  8
0
  6
CONTINUOUS
 62
     7
 10
-137.76471000000001
 20
151.11764999999991
 30
0.0
 40
0.3
  0
TEXT
  5
3F7
  8
0
  6
CONTINUOUS
 62
     7
 10
-138.56470999999999
 20
162.42858000000001
 30
0.0
 40
3.2000000000000002
  1
〃
 50
90.000003000000007
 41
0.90036055
  0
LINE
  5
3F8
  8
0
  6
CONTINUOUS
 62
     7
 10
-137.76471000000001
 20
181.11765
 30
0.0
 11
-137.76471000000001
 21
166.11765
 31
0.0
  0
CIRCLE
  5
3F9
  8
0
  6
CONTINUOUS
 62
     7
 10
-137.76471000000001
 20
181.11765
 30
0.0
 40
0.3
  0
LINE
  5
3FA
  8
0
  6
CONTINUOUS
 62
     7
 10
-137.76471000000001
 20
151.11764999999991
 30
0.0
 11
-137.76471000000001
 21
166.11765
 31
0.0
  0
CIRCLE
  5
3FB
  8
0
  6
CONTINUOUS
 62
     7
 10
-137.76471000000001
 20
151.11764999999991
 30
0.0
 40
0.3
  0
TEXT
  5
3FC
  8
0
  6
CONTINUOUS
 62
     7
 10
-3.5647057999999991
 20
148.37478999999999
 30
0.0
 40
3.2000000000000002
  1
26
 50
90.000003000000007
 41
1.0285716
  0
LINE
  5
3FD
  8
0
  6
CONTINUOUS
 62
     7
 10
-2.7647058999999992
 20
138.11765
 30
0.0
 11
-2.7647058999999992
 21
151.11764999999991
 31
0.0
  0
CIRCLE
  5
3FE
  8
0
  6
CONTINUOUS
 62
     7
 10
-2.7647058999999992
 20
138.11765
 30
0.0
 40
0.3
  0
LINE
  5
3FF
  8
0
  6
CONTINUOUS
 62
     7
 10
-2.7647058999999992
 20
164.11765
 30
0.0
 11
-2.7647058999999992
 21
151.11764999999991
 31
0.0
  0
CIRCLE
  5
400
  8
0
  6
CONTINUOUS
 62
     7
 10
-2.7647058999999992
 20
164.11765
 30
0.0
 40
0.3
  0
LINE
  5
401
  8
0
  6
CONTINUOUS
 62
     7
 10
-22.764706
 20
138.11765
 30
0.0
 11
-1.2647058999999989
 21
138.11765
 31
0.0
  0
LINE
  5
402
  8
0
  6
CONTINUOUS
 62
     7
 10
-22.764706
 20
164.11765
 30
0.0
 11
-1.2647058999999989
 21
164.11765
 31
0.0
  0
LINE
  5
403
  8
0
  6
CONTINUOUS
 62
     7
 10
-175.8647
 20
126.48701
 30
0.0
 11
-152.5574499999999
 21
86.117644999999996
 31
0.0
  0
LINE
  5
404
  8
0
  6
CONTINUOUS
 62
     7
 10
-152.5574499999999
 20
86.117644999999996
 30
0.0
 11
-105.09981999999989
 21
86.117644999999996
 31
0.0
  0
CIRCLE
  5
405
  8
0
  6
CONTINUOUS
 62
     7
 10
-175.8647
 20
126.48701
 30
0.0
 40
0.3
  0
TEXT
  5
406
  8
0
  6
CONTINUOUS
 62
     7
 10
-150.35695999999999
 20
86.917644999999993
 30
0.0
 40
3.2000000000000002
  1
４－%%C６．２ｘ%%C１２．４サラ
 41
0.8634387799999999
  0
TEXT
  5
407
  8
0
  6
CONTINUOUS
 62
     7
 10
-288.56470999999988
 20
-40.625211999999991
 30
0.0
 40
3.2000000000000002
  1
46
 50
90.000003000000007
 41
1.0285716
  0
LINE
  5
408
  8
0
  6
CONTINUOUS
 62
     7
 10
-287.76470999999998
 20
-60.882354999999997
 30
0.0
 11
-287.76470999999998
 21
-37.882353999999999
 31
0.0
  0
CIRCLE
  5
409
  8
0
  6
CONTINUOUS
 62
     7
 10
-287.76470999999998
 20
-60.882354999999997
 30
0.0
 40
0.3
  0
LINE
  5
40A
  8
0
  6
CONTINUOUS
 62
     7
 10
-287.76470999999998
 20
-14.882353
 30
0.0
 11
-287.76470999999998
 21
-37.882353999999999
 31
0.0
  0
CIRCLE
  5
40B
  8
0
  6
CONTINUOUS
 62
     7
 10
-287.76470999999998
 20
-14.882353
 30
0.0
 40
0.3
  0
LINE
  5
40C
  8
0
  6
CONTINUOUS
 62
     7
 10
-237.76471000000001
 20
-60.882354999999997
 30
0.0
 11
-289.26470999999998
 21
-60.882354999999997
 31
0.0
  0
TEXT
  5
40D
  8
0
  6
CONTINUOUS
 62
     7
 10
6.4352944000000001
 20
-33.625211
 30
0.0
 40
3.2000000000000002
  1
60
 50
90.000003000000007
 41
1.102041
  0
LINE
  5
40E
  8
0
  6
CONTINUOUS
 62
     7
 10
7.2352942999999987
 20
-60.882354999999997
 30
0.0
 11
7.2352942999999987
 21
-30.882353999999999
 31
0.0
  0
CIRCLE
  5
40F
  8
0
  6
CONTINUOUS
 62
     7
 10
7.2352942999999987
 20
-60.882354999999997
 30
0.0
 40
0.3
  0
LINE
  5
410
  8
0
  6
CONTINUOUS
 62
     7
 10
7.2352942999999987
 20
-0.8823529499999999
 30
0.0
 11
7.2352942999999987
 21
-30.882353999999999
 31
0.0
  0
CIRCLE
  5
411
  8
0
  6
CONTINUOUS
 62
     7
 10
7.2352942999999987
 20
-0.8823529499999999
 30
0.0
 40
0.3
  0
LINE
  5
412
  8
0
  6
CONTINUOUS
 62
     7
 10
-147.76471000000001
 20
-60.882354999999997
 30
0.0
 11
8.7352943000000014
 21
-60.882354999999997
 31
0.0
  0
LINE
  5
413
  8
0
  6
CONTINUOUS
 62
     7
 10
-24.764706
 20
-0.8823529499999999
 30
0.0
 11
8.7352943000000014
 21
-0.8823529499999999
 31
0.0
  0
TEXT
  5
414
  8
0
  6
CONTINUOUS
 62
     7
 10
-3.5647057999999991
 20
-17.625211
 30
0.0
 40
3.2000000000000002
  1
28
 50
90.000003000000007
 41
1.0285716
  0
LINE
  5
415
  8
0
  6
CONTINUOUS
 62
     7
 10
-2.7647058999999992
 20
-28.882352999999998
 30
0.0
 11
-2.7647058999999992
 21
-14.882353
 31
0.0
  0
CIRCLE
  5
416
  8
0
  6
CONTINUOUS
 62
     7
 10
-2.7647058999999992
 20
-28.882352999999998
 30
0.0
 40
0.3
  0
LINE
  5
417
  8
0
  6
CONTINUOUS
 62
     7
 10
-2.7647058999999992
 20
-0.8823529499999999
 30
0.0
 11
-2.7647058999999992
 21
-14.882353
 31
0.0
  0
CIRCLE
  5
418
  8
0
  6
CONTINUOUS
 62
     7
 10
-2.7647058999999992
 20
-0.8823529499999999
 30
0.0
 40
0.3
  0
LINE
  5
419
  8
0
  6
CONTINUOUS
 62
     7
 10
-24.764706
 20
-28.882352999999998
 30
0.0
 11
-1.2647058999999989
 21
-28.882352999999998
 31
0.0
  0
TEXT
  5
41A
  8
0
  6
CONTINUOUS
 62
     7
 10
-3.5647057999999991
 20
-47.625211999999998
 30
0.0
 40
3.2000000000000002
  1
32
 50
90.000003000000007
 41
1.0285716
  0
LINE
  5
41B
  8
0
  6
CONTINUOUS
 62
     7
 10
-2.7647058999999992
 20
-60.882354999999997
 30
0.0
 11
-2.7647058999999992
 21
-44.882353999999992
 31
0.0
  0
CIRCLE
  5
41C
  8
0
  6
CONTINUOUS
 62
     7
 10
-2.7647058999999992
 20
-60.882354999999997
 30
0.0
 40
0.3
  0
LINE
  5
41D
  8
0
  6
CONTINUOUS
 62
     7
 10
-2.7647058999999992
 20
-28.882352999999998
 30
0.0
 11
-2.7647058999999992
 21
-44.882353999999992
 31
0.0
  0
CIRCLE
  5
41E
  8
0
  6
CONTINUOUS
 62
     7
 10
-2.7647058999999992
 20
-28.882352999999998
 30
0.0
 40
0.3
  0
TEXT
  5
41F
  8
0
  6
CONTINUOUS
 62
     7
 10
-255.14510999999999
 20
91.555258999999978
 30
0.0
 40
3.2000000000000002
  1
90%%D
 50
321.7999999999999
 41
1.085714399999999
  0
ARC
  5
420
  8
0
  6
CONTINUOUS
 62
     7
 10
-202.76471000000001
 20
151.11764999999991
 30
0.0
 40
80.0
 50
180.0
 51
224.99999
  0
CIRCLE
  5
421
  8
0
  6
CONTINUOUS
 62
     7
 10
-282.76470999999998
 20
151.11764999999991
 30
0.0
 40
0.3
  0
ARC
  5
422
  8
0
  6
CONTINUOUS
 62
     7
 10
-202.76471000000001
 20
151.11764999999991
 30
0.0
 40
80.0
 50
224.99999
 51
270.0
  0
CIRCLE
  5
423
  8
0
  6
CONTINUOUS
 62
     7
 10
-202.76471000000001
 20
71.117644999999996
 30
0.0
 40
0.3
  0
TEXT
  5
424
  8
0
  6
CONTINUOUS
 62
     7
 10
-13.56470599999999
 20
-37.125830000000001
 30
0.0
 40
3.2000000000000002
  1
11
 50
90.000003000000007
 41
1.542857399999999
  0
LINE
  5
425
  8
0
  6
CONTINUOUS
 62
     7
 10
-12.764706
 20
-39.883594999999993
 30
0.0
 11
-12.764706
 21
-34.38297399999999
 31
0.0
  0
CIRCLE
  5
426
  8
0
  6
CONTINUOUS
 62
     7
 10
-12.764706
 20
-39.883594999999993
 30
0.0
 40
0.3
  0
LINE
  5
427
  8
0
  6
CONTINUOUS
 62
     7
 10
-12.764706
 20
-28.882352999999998
 30
0.0
 11
-12.764706
 21
-34.38297399999999
 31
0.0
  0
CIRCLE
  5
428
  8
0
  6
CONTINUOUS
 62
     7
 10
-12.764706
 20
-28.882352999999998
 30
0.0
 40
0.3
  0
LINE
  5
429
  8
0
  6
CONTINUOUS
 62
     7
 10
-59.419150999999999
 20
-39.883594999999993
 30
0.0
 11
-11.26470599999999
 21
-39.883594999999993
 31
0.0
  0
ENDSEC
  0
EOF
